Bass Tabs
(THIRD DAY) OR BY ARTIST NAME (JENNIFER KNAPP)
0-9|A|B|C|D|E|F|G|H|I|J|K|L|M|N|O|P|Q|R|S|T|U|V|W|X|Y|Z

Join Us Today!

Don't strum alone...
be a part of the largest online Christian music community. Browse thousands of guitar tabs and chat w/ musicians like yourself.


It's Free!

This tab has not yet been rated for accuracy.Sorry, but you must be logged in to rate this tab.
Click here to log-in, or you can click here to register.
(Registration is free)

All songs owned by Integrity and Brentwood-Benson are used by permission. If you make copies of any song on this website, be sure to report your usage to CCLI.
Submitted by: Gavin Smith

Undignified
Matt Redman

This is mostly the version that my band plays at our church, so it may
require some tweaking up to match with any other versions.

Intro/Verse 1-

4-String:Drop D Tuning
Intro/Verse 1-
G|----------------|----------|------|
D|O---------------|----------|-----O|
A|O----5----------|----------|-----O|
D|--00---00-3-00--|-3-3/5-33-|-3*/7-|

Verse 2-
G|---------|-------------------|---------|-------------|
D|O-------O|-------------------|O-------O|-------------|
A|O---5*--O|-----5*------------|O---5*--O|----5*-------|
D|-00--3*--|--00--3*(3)/5-33-2-|-00--3*--|-00--3*(3)/7-|

Chorus/Outro (Na Na Na Na Hey)-
G|---------------------|    G|-------------------|
D|---------------------| or D|-------------------|
A|----00-2-----00-2--0-|    A|-2-22--2--2-22-2---|
D|-22-------22------2--|    E|------2----------2-|

5-String:Standard Tuning
Intro/Verse 1-
G|--------------------------------------------------|
D|O------------------------------------------------O|
A|-----5------------------------5-------------------|
E|O---------5------5-5/7-55----------5-----5*(5)/9-O|
B|--33---33---33-------------33---33----33----------|

Verse 2-
G|---------|------------------|--------------|
D|O-------O|------------------|O------------O|
A|----5*---|----5*------------|----5*--------|
E|O----5*-O|-----5*(5)/7-55-4-|O----5*(5)/9-O|
B|-33------|-33---------------|-33-----------|

Chorus/Outro (Na Na Na Na Hey)-
G|-------------------------------------------------|
D|-------------------------------------------------|
A|-------------------------------------------------|
E|--[0][0]-[5][5]-[7]-[x]-[0][0]-[5][5]-[7]-[0(5)]-|
B|-------------------------------------------------|

Order:
Guitar Intro (No Bass)x2
Intro x1
Verse 1 x1
Verse 2 x2
Chorus x2
Intro x1
Verse 1 x1
Verse 2 x2
Chorus x2
Outro x2

Tabliture Key:
2(4) Hammer-On (Slur)
4*4(4) Note Stops Ringing/Connect Notes (Tie)
x Left-Handed Mute
6* Let Note Ring
[7] Thumb Pop
4/6 Slide

Comments about this tab

greenmnmluvver - 2005-04-04

I wish the words were included so that I know when to switch chords.


Add a comment/correction

Complimentary Christian Ringtones
Dadamobile and CGR have teamed up to bring your favorite Christian artists right to your phone. Sign up today and get 10 complementary ringtones!
Tab Country
Did you know CGR has a sister site w/ country guitar tabs? Well we do! Its called Tab Country. It has a great archive with a lot of country tabs.
Rockin Tabs
Are you looking for a site that has rock guitar tabs? Then Rockintabs.com is the place for you. It is a budding site with many rock guitar tabs. Submit your tab today.
Tab Gallery
Tab Gallery has a compilation of christian, rock, and country tabs all in one place. Come visit us.