Bass Tabs
(THIRD DAY) OR BY ARTIST NAME (JENNIFER KNAPP)
0-9|A|B|C|D|E|F|G|H|I|J|K|L|M|N|O|P|Q|R|S|T|U|V|W|X|Y|Z

Join Us Today!

Don't strum alone...
be a part of the largest online Christian music community. Browse thousands of guitar tabs and chat w/ musicians like yourself.


It's Free!

Big Daddy Weave - Friend Like You

This tab has been rated a 4.00 out of 5 for accuracy. (3 votes)Sorry, but you must be logged in to rate this tab.
Click here to log-in, or you can click here to register.
(Registration is free)

All songs owned by Integrity and Brentwood-Benson are used by permission. If you make copies of any song on this website, be sure to report your usage to CCLI.
Big Daddy Weave
Friend Like You

I noticed that there were no bass tabs for BDW so i figured i would put
some on. Hope you can make sense of it!  TallBassPlyr

INTRO x2
------------------------------
---------2------0-------------
-2--3-3h5-5p3------------2----
------------------2-3-3h5-5p3-

Verse x4
------------------------------
---------2------0-------------
-2--3-3h5-5p3------------2----
------------------2-3-3h5-5p3-

Chorus x2
-----------------------------------------------------
------------------------2-----2--0-------------------
-------------2--2--3-3h5-5p3--------3----------------
-3--3--5--5----------------------------5-------------

Interlude/Bridge
-----------------------------------------------------
-3--3--2--2----------------3--3--2--2----------------
-------------0--0--0-------------------0--0--2-3--3--
----------------------3--3---------------------------

Order:
Intro
Verse
Chorus 
Verse
Chorus
Verse
Interlude/Bridge
Intro
Chorus
Intro

Comments about this tab

No comments/corrections found. Add your own

Complimentary Christian Ringtones
Dadamobile and CGR have teamed up to bring your favorite Christian artists right to your phone. Sign up today and get 10 complementary ringtones!
Tab Country
Did you know CGR has a sister site w/ country guitar tabs? Well we do! Its called Tab Country. It has a great archive with a lot of country tabs.
Rockin Tabs
Are you looking for a site that has rock guitar tabs? Then Rockintabs.com is the place for you. It is a budding site with many rock guitar tabs. Submit your tab today.
Tab Gallery
Tab Gallery has a compilation of christian, rock, and country tabs all in one place. Come visit us.