Bass Tabs
(THIRD DAY) OR BY ARTIST NAME (JENNIFER KNAPP)
0-9|A|B|C|D|E|F|G|H|I|J|K|L|M|N|O|P|Q|R|S|T|U|V|W|X|Y|Z

Join Us Today!

Don't strum alone...
be a part of the largest online Christian music community. Browse thousands of guitar tabs and chat w/ musicians like yourself.


It's Free!

38th Parallel - Horizon

This tab has been rated a 4.00 out of 5 for accuracy. (1 vote)Sorry, but you must be logged in to rate this tab.
Click here to log-in, or you can click here to register.
(Registration is free)

All songs owned by Integrity and Brentwood-Benson are used by permission. If you make copies of any song on this website, be sure to report your usage to CCLI.
Artist: 38th Parallel
Song: Horizon
Copyright 2002 Squint Entertainment
Tabbed by William F. (wfenn123@yahoo.com)

There's a low Eb in the song so tune your E-string to either D or Eb, or
just use your fifth string if you have it. G-string is not used.  Oh, and
nothing is over the 10th fret, so --11-- is first fret twice, not eleventh
fret once.

Verse:
D|----------------------------------43---|
A|11--111---11--43--11--111---11--44-----| x2
Eb|------------55------------------------|

Chorus:
D|-----------------------------43--|
A|11--111------43--11--111---44----| x2
Eb|------555-55-----------555------|

D|---------------------------------------------------------------------------|
A|4----------43-1-----------------1--------------------43-1------------------|
Eb|---------5-----------5-3-----------------3---------5----------3-33--5-555-|

Verse
Chorus

Solo-ish section:
D|----------------------|
A|111--111--------------| x2
Eb|--------5-333-000----|

Chorus

Ending:
D|-----------------------------|
A|1----------------------------| and then play the verse part
Eb|-------5-------3-33--5-555--|

It's really not too difficult, but if you have any questions you can email
me at the above address, but please don't email me about dumb stuff like "you
said to play it 3 times but it only sounds like 2 times," because I don't
really care. Anyways, just have fun with it.

Comments about this tab

No comments/corrections found. Add your own

Complimentary Christian Ringtones
Dadamobile and CGR have teamed up to bring your favorite Christian artists right to your phone. Sign up today and get 10 complementary ringtones!
Tab Country
Did you know CGR has a sister site w/ country guitar tabs? Well we do! Its called Tab Country. It has a great archive with a lot of country tabs.
Rockin Tabs
Are you looking for a site that has rock guitar tabs? Then Rockintabs.com is the place for you. It is a budding site with many rock guitar tabs. Submit your tab today.
Tab Gallery
Tab Gallery has a compilation of christian, rock, and country tabs all in one place. Come visit us.