Bass Tabs
(THIRD DAY) OR BY ARTIST NAME (JENNIFER KNAPP)
0-9|A|B|C|D|E|F|G|H|I|J|K|L|M|N|O|P|Q|R|S|T|U|V|W|X|Y|Z

Join Us Today!

Don't strum alone...
be a part of the largest online Christian music community. Browse thousands of guitar tabs and chat w/ musicians like yourself.


It's Free!

Pax217 - Tonight

This tab has been rated a 3.00 out of 5 for accuracy. (1 vote)Sorry, but you must be logged in to rate this tab.
Click here to log-in, or you can click here to register.
(Registration is free)

All songs owned by Integrity and Brentwood-Benson are used by permission. If you make copies of any song on this website, be sure to report your usage to CCLI.
PAX217
Tonight
Bass Tab by The Fearless Flame

Check the play order at the bottom so you know when to play each tab.

1x4 = 1st fret 4 times
p = pull off
/=slide up
*=play note repeatedly


Drop D Tuning


CHORUS
G|---------------------------------|G
D|---------------------------------|D
A|---------------------------------|A
D|--0-12x7-00-5x7-00-4x7-00-5x7-0--|D

VERSE A
G|--4p2-4-----------|G
D|--------4p2-4-----|D
A|-------------0-2--|A
D|------------------|D

VERSE B
G|--/4*-----4p7-4-4*---7-6-4-2*--|G
D|-------------------------------|D
A|-------------------------------|A
D|-------------------------------|D

PRECHORUS
G|--4-4-4-------------------------------|G
D|--------2-2-2--4-4-4-------------0-0--|D
A|---------------------0-0-0--2-2-------|A
D|--------------------------------------|D

FILL A
G|-------------------------|
D|-------------------------|
A|-------------------------|
D|--0----5----4----5--5-7--|

FILL B
G|--4x6--|G
D|-------|D
A|-------|A
D|-------|D
Then this part x3:
G|-------------------|G
D|-------------------|D
A|-------------------|A
D|--5-5---5-7-7---7--|D
Then this once:  Hold the 12 until the open.
G|----------------------------------|
D|----------------------------------|
A|----------------------------------|
D|--9-9---9-11-11---11-12--------0--|


Play Order:
Chorus     x2
Verse A    x8
Prechorus  x4
Chorus     x2
BREAK--------
Verse B    x1
Verse A    x4
Prechorus  x4
Chorus     x2
Fill A     x1
Prechorus  x4
Fill B     x1
Chorus     x4
Then end on the low D.

Peace.

Comments about this tab

No comments/corrections found. Add your own

Complimentary Christian Ringtones
Dadamobile and CGR have teamed up to bring your favorite Christian artists right to your phone. Sign up today and get 10 complementary ringtones!
Tab Country
Did you know CGR has a sister site w/ country guitar tabs? Well we do! Its called Tab Country. It has a great archive with a lot of country tabs.
Rockin Tabs
Are you looking for a site that has rock guitar tabs? Then Rockintabs.com is the place for you. It is a budding site with many rock guitar tabs. Submit your tab today.
Tab Gallery
Tab Gallery has a compilation of christian, rock, and country tabs all in one place. Come visit us.