Bass Tabs
(THIRD DAY) OR BY ARTIST NAME (JENNIFER KNAPP)
0-9|A|B|C|D|E|F|G|H|I|J|K|L|M|N|O|P|Q|R|S|T|U|V|W|X|Y|Z

Join Us Today!

Don't strum alone...
be a part of the largest online Christian music community. Browse thousands of guitar tabs and chat w/ musicians like yourself.


It's Free!

Project 86 - S.M.C.

This tab has been rated a 2.50 out of 5 for accuracy. (2 votes)Sorry, but you must be logged in to rate this tab.
Click here to log-in, or you can click here to register.
(Registration is free)

All songs owned by Integrity and Brentwood-Benson are used by permission. If you make copies of any song on this website, be sure to report your usage to CCLI.
S.M.C.
Project 86

This is my first tab but i\'m about 98% sure it\'s right. This is a
relatively easy song to learn and pretty clear to hear in the song.
This is in Drop D.

Verse 1&2

G---------------------------------
D--------------------------------- Repeat 
A---------------------------------
D-0-0-0-3-3-3-5-5-6-6-6-5-5-5-3-3-

Pre-Chorus

G------------------------------------------------------------------------
D------------------------------------------------------------------------ Repeat
A------------------------------------------------------------------------
D-8-8-8-8-8-8-8-8-10-10-10-10-10-10-10-10-0-0--0--0-0--0--0-0--0--0-0--0-

Chorus

G-------------------------------------------------
D-------------------------------------------------  Repeat
A-------------------------------------------------
D-0-0-0-6-5-3-3-3-6-5-0-0-0-6-5-0-3-3-3-8-8-8-8-8-

Bridge

G---------------------------------
D---------------------------------  Repeat
A---------------------------------
D-0-0-0-0-0-0-0-0-0-0-3-5-6-5-3-5-

If you have anything you might think is wrong please e-mail me at
nathangruen05@hotmail.com and I\'ll correct it for you. Or you could
e-mail me saying thanks-I wouldn\'t mind.lol. Enjoy the tab bassists!

Comments about this tab

No comments/corrections found. Add your own

Complimentary Christian Ringtones
Dadamobile and CGR have teamed up to bring your favorite Christian artists right to your phone. Sign up today and get 10 complementary ringtones!
Tab Country
Did you know CGR has a sister site w/ country guitar tabs? Well we do! Its called Tab Country. It has a great archive with a lot of country tabs.
Rockin Tabs
Are you looking for a site that has rock guitar tabs? Then Rockintabs.com is the place for you. It is a budding site with many rock guitar tabs. Submit your tab today.
Tab Gallery
Tab Gallery has a compilation of christian, rock, and country tabs all in one place. Come visit us.