Bass Tabs
(THIRD DAY) OR BY ARTIST NAME (JENNIFER KNAPP)
0-9|A|B|C|D|E|F|G|H|I|J|K|L|M|N|O|P|Q|R|S|T|U|V|W|X|Y|Z

Join Us Today!

Don't strum alone...
be a part of the largest online Christian music community. Browse thousands of guitar tabs and chat w/ musicians like yourself.


It's Free!

MxPx - Cold and All Alone

This tab has not yet been rated for accuracy.Sorry, but you must be logged in to rate this tab.
Click here to log-in, or you can click here to register.
(Registration is free)

All songs owned by Integrity and Brentwood-Benson are used by permission. If you make copies of any song on this website, be sure to report your usage to CCLI.
Artist: MXPX
Song: Cold And All Alone
Album: Slowly Going the Way of the Buffalo
Re-Tabbed by: Seth

I saw this song on the site, printed it up and once I started playing it,
I realized there were a lot of missing parts. So I re-tabbed it. All credit
goes to Chris who tabbed the original version. Hope you like it. Hey, check
out MXPX only radio at their web site. Kick Tuckas, Rock Hard. 

Intro.:
G----------------------------------------------
D----------------------------------------------
A----------5-----------------------------------
E-5--0--2--------------------------------------

G----------------------------------------------
D----------------------------------------------
A------------55-5-55-5-------------------------
E-22-2-22-2-------------55-5-55-5--44-4-00-----

G----------------------------------------------
D----------------------------------------------
A------------55-5-55-5--7-777777777------------
E-22-2-22-2------------------------------------

Verse: (2xs)
G----------------------------------------------
D----------------------------------------------
A----------------------------------555555555---
E-555555555--000000000--222222222--------------

Chorus 1:
G----------------------------------------------
D----------------------------------------------
A-----------5555555-----------5555555--7777777-
E--2222222-----------2222222-------------------

Bridge thing:
G----------------------------------------------
D----------------------------------------------
A------------------------------5555555---------
E--55555--44444--22222--00000----------0-------

Verse:(2xs)
G----------------------------------------------
D----------------------------------------------
A----------------------------------555555555---
E-555555555--000000000--222222222--------------

Chorus 2:
G----------------------------------------------
D----------------------------------------------
A-----------5555555-----------5555555--7777777-
E--2222222-----------2222222-------------------





(Play this part 3xs)
G----------------------------------------------
D----------------------------------------------
A--------------5544--5544--5544--554-----------
E--5--4--2--0----------------------------------

G----------------------------------------------
D----------------------------------------------
A--------------5544--554--7777777--------------
E--5--4--2--0----------------------------------

Chorus 1:
G----------------------------------------------
D----------------------------------------------
A-----------5555555-----------5555555--7777777-
E--2222222-----------2222222-------------------

Ending/Bridge thing:
(Play this part 2xs)
G----------------------------------------------
D----------------------------------------------
A------------------------------5555555---------
E-55555--44444--22222--00000-----------0000000-

G----------------------------------------------
D----------------------------------------------
A-----------------------------5--2--4----------
E-55555--44444--22222--00000-----------05-----

Hope you enjoy it. That should be it. Thats how I play it on my bass.
Catch you folks later. If you have any ?s e-mail me at
bpenn@freshdelmonte.com. Oh yeah, I want to thank Chris for tabbing the
first version. LATER.

Comments about this tab

No comments/corrections found. Add your own

Complimentary Christian Ringtones
Dadamobile and CGR have teamed up to bring your favorite Christian artists right to your phone. Sign up today and get 10 complementary ringtones!
Tab Country
Did you know CGR has a sister site w/ country guitar tabs? Well we do! Its called Tab Country. It has a great archive with a lot of country tabs.
Rockin Tabs
Are you looking for a site that has rock guitar tabs? Then Rockintabs.com is the place for you. It is a budding site with many rock guitar tabs. Submit your tab today.
Tab Gallery
Tab Gallery has a compilation of christian, rock, and country tabs all in one place. Come visit us.