Bass Tabs
(THIRD DAY) OR BY ARTIST NAME (JENNIFER KNAPP)
0-9|A|B|C|D|E|F|G|H|I|J|K|L|M|N|O|P|Q|R|S|T|U|V|W|X|Y|Z

Join Us Today!

Don't strum alone...
be a part of the largest online Christian music community. Browse thousands of guitar tabs and chat w/ musicians like yourself.


It's Free!

Five Iron Frenzy - Beautiful America

This tab has not yet been rated for accuracy.Sorry, but you must be logged in to rate this tab.
Click here to log-in, or you can click here to register.
(Registration is free)

All songs owned by Integrity and Brentwood-Benson are used by permission. If you make copies of any song on this website, be sure to report your usage to CCLI.
Bass Tab for "Beautiful America" by Five Iron Frenzy
Tabbed by Josh Vajda, 10/21/2000
jd_vajdaman@hotmail.com
Upbeats and Beatdowns, 1996
5 Minute Walk Records
Bass - Keith Hoerig
Copyright: 1957, The Leonard Bernstein Music Publishing Company LLC/ASCAP
Visit http://www.geocities.com/thevajdaman for more tabs and music.
--------------------------------------------------------------------
Instructions:
Nxt = repeat (N) note (t) number of times (3x5 would be third fret 5 times)
0 = play open string

	"So, should we start it from the beginning, or what?"
		"Yeah"

Intro:
G| ------------------------
D| ------------0x2-0-4x2-4-
A| 2x2-2-0x2-0-------------
E| ------------------------
                       (4x)


Verse: [wait for second time through to add words]
G| ------------------------
D| ------------0x2-0-4x2-4-
A| 2x2-2-0x2-0-------------
E| ------------------------
                   (repeat)

G| 0x2-0----------------------------------0x2-0------------------------------
D| ------0x2-0-2x2-2---------------------------0x2-0-2x2-2---------------2x8-
A| ------------------2x2-2-------0x2-0--------------------2x2-2-----0x2-0----
E| ------------------------3x2-3-------0x5---------------------3x2-3---------

                                                              (repeat entire 
verse)


Chorus:
(In America, it's wonderful...)
G| ------------------------0x2-0-------0x2-0-------
D| 3x2-3-------3x2-3-------------0x2-0-------0x2-0-
A| ------3x2-3-------3x2-3-------------------------
E| ------------------------------------------------

G| ------------------------------------------------
D| 3x2-3-------3x2-3-------0x2-0-------0x2-0-------
A| ------3x2-3-------3x2-3-------0x2-0-------0x2-0-
E| ------------------------------------------------


Pre-Verse:
G| ------------------------
D| ------------0x2-0-4x2-4-
A| 2x2-2-0x2-0-------------
E| ------------------------

(verse, chorus)

Bridge:
(I want to be in America...)
G| --1-4-------------1-2-4-----------------------------------------1---1-
D| 2-----2---2-----2-------2---4-1---------------7-4-----2-3-5-2-2---2---
A| --------0---4-0-----------2-----2---2-3-5-2-5-----5-3-----------------
E| ----------------------------------3-----------------------------------
                                               (repeat throughout bridge)


Ending: [this is where everything goes crazy]
G| ------------------------------1---1-
D| 2x8-----2x8---------0x8-----2---2---
A| ----0x8-----2x8---------3x8---------
E| ----------------3x8-----------------
                      (repeat till end)

Comments about this tab

No comments/corrections found. Add your own

Complimentary Christian Ringtones
Dadamobile and CGR have teamed up to bring your favorite Christian artists right to your phone. Sign up today and get 10 complementary ringtones!
Tab Country
Did you know CGR has a sister site w/ country guitar tabs? Well we do! Its called Tab Country. It has a great archive with a lot of country tabs.
Rockin Tabs
Are you looking for a site that has rock guitar tabs? Then Rockintabs.com is the place for you. It is a budding site with many rock guitar tabs. Submit your tab today.
Tab Gallery
Tab Gallery has a compilation of christian, rock, and country tabs all in one place. Come visit us.