Bass Tabs
(THIRD DAY) OR BY ARTIST NAME (JENNIFER KNAPP)
0-9|A|B|C|D|E|F|G|H|I|J|K|L|M|N|O|P|Q|R|S|T|U|V|W|X|Y|Z

Join Us Today!

Don't strum alone...
be a part of the largest online Christian music community. Browse thousands of guitar tabs and chat w/ musicians like yourself.


It's Free!

Relient K - Trademark

This tab has been rated a 3.00 out of 5 for accuracy. (2 votes)Sorry, but you must be logged in to rate this tab.
Click here to log-in, or you can click here to register.
(Registration is free)

All songs owned by Integrity and Brentwood-Benson are used by permission. If you make copies of any song on this website, be sure to report your usage to CCLI.
Band: Relient K
Album:"Two Lefts Dont make a Right...But Three Do" 
Song: Trademark
Instrument: Bass
Tabber:The Big Bad Bass Boy
Tuning: drop D Lo to HI  (DADG)

I'm pretty sure this is 100% correct.I submitted this b/c all the other
tabs i saw were imcomplete or confusing or wrong.I didnt put in the rhythm,
you'll just have to listen to the cd. Relient K is a great christian band!
If you dont have their cd get it!I put in the cd times to help you out.
I personally never need them. I hope this tab works for you.
                 -The Big Bad Bass Boy- aka Caleb Elwell

Symbols:
pm -palm mute
/ -slide up
~ -let sound

0:01
Intro:
|- - - - - - - - - - - - - - - - - - - - - - - - - -|
|- - - - - - - - - - - - - - - - - - - - - - - - - -|X1
|- - - - - - - - - - - - - - - - - - - - - - - - - -|
|- 2-/4-4- - - - -4-4- - - - -0-0- - - -0-0- - - - -|
0:07
|- - - - - - - - - - - - - - - - - - |
|- - - - - - - - - - - - - - - - - - |X3
|- - - - - - - - - - - - - - - - - - |
|-4-4- - - - -4-4- - - -0-0- - - -0-0|
0:23
|- - - - - - - - - - - - - - - - - - - - - - - - - - - - - - -|
|- - - - - - - - - - - - - - - - - - - - - - - - - - - - - - -|
|-0~wait one measure - -0-0-0-0-0-0-0-0- - - - - - - - - - - -|
|- - - - - - - - - - - - - - - - - - - -2-2-2-2-0-0-0-0- - - -|
0:34
Verse:
|- - - - - - - - - - - - - - - - - - - - - - - - - - - - - - - - -|
|- - - - - - - - - - - - - - - - - - - - - - - - - - - - - - - - -| X2
|-0-0-0-0-0-0-0-0-7-7-7-7-7-7-7-7-9-9-9-9-9-9-9-9-5-5-5-5-5-5-5-5-|
|- - - - - - - - - - - - - - - - - - - - - - - - - - - - - - - - -|
    |-----------|   |-----------|   |-----------|   |-----------|
         pm              pm              pm              pm
0:56
Pre-chorus:
|- - - - - - - - - - - - - - - - - - -|
|- - - - - - - - - - - - - - - - - - -| X2
|- - - - - - - - - - - - - - - - - - -|
|-4-4- -4-4 -4-7-7-7-7-0-0-0-0-2-2-2-2|
1:06
|- - - - - - - - - - - - - - - - - - - -|
|- - - - - - - - - - - - - - - - - - - -|
|- - - - - - - - - - - - - - - - - - - -|
|-4-4-2-2-2-2-0-0-0-0-2-2-2-2-2-2-2-2- -|
                      |-------------|
1:11                   pm/ 2x as fast
Chorus:
|- - - - - - - - - - - - - - - - - - - - - - - - - - - - - - - - -|
|- - - - - - - - - - - - - - - - - - - - - - - - - - - - - - - - -| X2
|- - - - - - - - - - - - - - - - - - - - - - - - - - - - - - - - -|
|-7-7-7-7-7-7-7-7-7-7-7-7-7-7-7-7-0-0-0-0-0-0-0-0-0-0-0-0-0-0-0-0-|
1:22
|- - - - - - - - - - - - - - - - - - - - - - - - - - - - - - - -|
|- - - - - - - - - - - - - - - - - - - - - - - - - - - - - - - -|
|- - - - - - - - - - - - - - - - - - - - - - - - - - - - - - - -|
|-4-4-4-4-3-3-3-3-2-2-2-2-1-1-1-1-0-0- -0- 0-0- -0- 0-0- -0- 0-0|
1:30
Interlude:                                        1:36
|- - - - - - - - - - - - - - - - - - - - - -|
|- - - - - - - - - - - - - - - - - - - - - -| X1 wait one
|- - - - - - - - - - - - - - - - - - - - - -|     measure
|-2- /4-4- - - - -4-4- - - - -0-0- - - -0-0-|
1:38
|- - - - - - - - - - - - - - - - -|
|- - - - - - - - - - - - - - - - -|X2
|- - - - - - - - - - - - - - - - -|
|4-4- - - -4-4- - - -0-0- - - -0-0|
1:49
|- - - - - - - - - - - - - - - - - -|
|- - - - - - - - - - - - - - - - - -| X2
|- -0-0-0-0-0-0-0-0- - - - - - - - -|
|- - - - - - - - - -2-2-2-2-0-0-0-0-|
2:00
Verse 2:
|- - - - - - - - - - - - - - - - - - - - - - - - - - - - - - - - -|
|- - - - - - - - - - - - - - - - - - - - - - - - - - - - - - - - -| X2
|-0-0-0-0-0-0-0-0-7-7-7-7-7-7-7-7-9-9-9-9-9-9-9-9-5-5-5-5-5-5-5-5-|
|- - - - - - - - - - - - - - - - - - - - - - - - - - - - - - - - -|
    |-----------|   |-----------|   |-----------|   |-----------|
         pm              pm              pm              pm
2:21
Pre-chorus:
|- - - - - - - - - - - - - - - - - - - -|
|- - - - - - - - - - - - - - - - - - - -| X2
|- - - - - - - - - - - - - - - - - - - -|
|-4-4 - -4-4- -4-7-7-7-7-0-0-0-0-2-2-2-2|

 2:32
|- - - - - - - - - - - - - - - - - - -|
|- - - - - - - - - - - - - - - - - - -|
|- - - - - - - - - - - - - - - - - - -|
|4-4-4-2-2-2-2-0-0-0-0-2-2-2-2-2-2-2-2|
                       |-------------|
            		pm/2x as fast
2:38
Chorus:
|- - - - - - - - - - - - - - - - - - - - - - - - - - - - - - - - -|
|- - - - - - - - - - - - - - - - - - - - - - - - - - - - - - - - -| X2
|- - - - - - - - - - - - - - - - - - - - - - - - - - - - - - - - -|
|-7-7-7-7-7-7-7-7-7-7-7-7-7-7-7-7-0-0-0-0-0-0-0-0-0-0-0-0-0-0-0-0-|
2:49
|- - - - - - - - - - - - - - - - - - - - - - - - - - - - - - - -|
|- - - - - - - - - - - - - - - - - - - - - - - - - - - - - - - -|
|- - - - - - - - - - - - - - - - - - - - - - - - - - - - - - - -|
|-4-4-4-4-3-3-3-3-2-2-2-2-1-1-1-1-0-0- -0- 0-0- -0- 0-0- -0- 0-0|
2:56
Interlude 2:
|- - - - - - - - - - - - - - - - - -|
|- - - - - - - - - - - - - - - - - -| X4
|- - - - - - - - - - - - - - - - - -|
|-7-7-7-7-7-7-7-7-0-0-0-0-2-2-2-2- -|
3:07
Chorus:
|- - - - - - - - - - - - - - - - - - - - - - - - - - - - - - - - -|
|- - - - - - - - - - - - - - - - - - - - - - - - - - - - - - - - -| X3
|- - - - - - - - - - - - - - - - - - - - - - - - - - - - - - - - -|
|-7-7-7-7-7-7-7-7-7-7-7-7-7-7-7-7-0-0-0-0-0-0-0-0-0-0-0-0-0-0-0-0-|
3:24
then play once
|- - - - - - - - - - - - - - - - - - -|
|- - - - - - - - - - - - - - - - - - -|
|- - - - - - - - - - - - - - - - - - -|
|-7-7-7-7-7-7-7-7-7-7-7-7-7-7-7-7- 0~-| 
3:29
play staccato
|- - - - - - - - - - - - - - - - - - - - - - - - - - - - - - - -|
|- - - - - - - - - - - - - - - - - - - - - - - - - - - - - - - -|
|- - - - - - - - - - - - - - - - - - - - - - - - - - - - - - - -|
|-4-4-4-4-3-3-3-3-2-2-2-2-1-1-1-1-0-0- -0- 0-0- -0- 0-0- -0- 0-0|
3:37
Interlude 3:
|- - - - - - - - - - - - - - - - - -|
|- - - - - - - - - - - - - - - - - -| X4
|- - - - - - - - - - - - - - - - - -|
|-7-7-7-7-7-7-7-7-0-0-0-0-2-2-2-2- -|
3:48
End on
|- - - -|
|- - - -|
|- - - -|
|-7~ - -|

Comments about this tab

No comments/corrections found. Add your own

Complimentary Christian Ringtones
Dadamobile and CGR have teamed up to bring your favorite Christian artists right to your phone. Sign up today and get 10 complementary ringtones!
Tab Country
Did you know CGR has a sister site w/ country guitar tabs? Well we do! Its called Tab Country. It has a great archive with a lot of country tabs.
Rockin Tabs
Are you looking for a site that has rock guitar tabs? Then Rockintabs.com is the place for you. It is a budding site with many rock guitar tabs. Submit your tab today.
Tab Gallery
Tab Gallery has a compilation of christian, rock, and country tabs all in one place. Come visit us.