Bass Tabs
(THIRD DAY) OR BY ARTIST NAME (JENNIFER KNAPP)
0-9|A|B|C|D|E|F|G|H|I|J|K|L|M|N|O|P|Q|R|S|T|U|V|W|X|Y|Z

Join Us Today!

Don't strum alone...
be a part of the largest online Christian music community. Browse thousands of guitar tabs and chat w/ musicians like yourself.


It's Free!

Five Iron Frenzy - Banner Year

This tab has not yet been rated for accuracy.Sorry, but you must be logged in to rate this tab.
Click here to log-in, or you can click here to register.
(Registration is free)

All songs owned by Integrity and Brentwood-Benson are used by permission. If you make copies of any song on this website, be sure to report your usage to CCLI.
Song: Banner Year (Bass tab)
Artist : Five Iron Frenzy
Publisher: 5 Minute Walk Records 1998
Album : Our Newest Album Ever
Tab Writer: theroadrunner@mgfairfax.rr.com

Trust me, this tab is correct.  I tuned my bass right before I
worked on this song.

INTRO:

-----------------------------------------------------------
-----------------------------------------------------------
-----5-5---------------3-3--------3-3---------4-4----------
-----------------------------------------------------------



VERSE SET 1:


A  banner  year  1864  don't  want  the  red  man  anymore
-----------------------------------------------------------
-----------4-----------4-------7--7-7------7--7--7---------
---5--5--5-----5-5-5------------------7-------------7------
-----------------------------------------------------------

                 Can't   have   them   taking   good   land
-----------------------------------------------------------
------2--------2------5-5-5-----5-5-5----------------------
3-3-3----3-3-3--------------5---------5--------------------
-----------------------------------------------------------


Give them a token flag, trade pipes and shake some hands
-----------------------------------------------------------
-----------4-----------4-------7--7-7------7--7--7---------
---5--5--5-----5-5-5------------------7-------------7------
-----------------------------------------------------------

   Tell them the white flag stands for peace
-----------------------------------------------------------
------2--------2-------5-5-5--- 5-5-5----------------------
3-3-3----3-3-3--------------5---------5--------------------
-----------------------------------------------------------

Say if they raise redwhite&blue blue coats will never shoot at you.
-----------------------------------------------------------
-----------4-----------4-------7--7-7------7--7--7---------
---5--5--5-----5-5-5------------------7-------------7------
-----------------------------------------------------------

                     But stripes will lost their sheen.
-----------------------------------------------------------
------2--------2-------5-5-5--- 5-5-5----------------------
3-3-3----3-3-3--------------5---------5--------------------
-----------------------------------------------------------

Black Kettle was their chief, he only wanted peace
-----------------------------------------------------------
-----------4-----------4-------7--7-7------7--7--7---------
---5--5--5-----5-5-5------------------7-------------7------
-----------------------------------------------------------

Under the flag.... a massacre at Sand Creek
-----------------------------------------------------------
------2--------2-------5-5-5--- 5-5-5----------------------
3-3-3----3-3-3--------------5---------5--------------------
-----------------------------------------------------------


PRE CHORUS:

Wave Your Flag, Salivate.  
-----------------------------------------------------------
-----------------------------------------------------------
--0-0-0-0-0-0-0-0-0--------3-3-3-3-3-3-3-3-3---------------
-----------------------------------------------------------

Stirring Feelings of Pride and hate
-----------------------------------------------------------
----------------------5-5-5-5-5-5-5-5-5--------------------
-----------------------------------------------------------
-3-3-3-3-3-3-3-3-3-----------------------------------------

A piece of cloth, can't hold your faith
-----------------------------------------------------------
-----------------------------------------------------------
-0-(9 times fast)----3 (9 times fast)--------5---9---10---12
-----------------------------------------------------------

CHORUS:

No flag flies, the banner waves
-----------------------------------------------------------
----12----12----12----12---------12---12---12---12---------
-10----10----10----10----10----9----9----9----9-----9------
-----------------------------------------------------------

See the empty pole above his empty grave.
-----------------------------------------------------------
---10---10---10---10---------------------------------------
-8----8----8----8----8--------7(fast)-8(fast)--------------
-----------------------------------------------------------

No one knows, where he lies
-----------------------------------------------------------
----12----12----12----12---------12---12---12---12---------
-10----10----10----10----10----9----9----9----9-----9------
-----------------------------------------------------------

And no one knows why he had to die
-----------------------------------------------------------
---10---10---10---10---------------------------------------
-8----8----8----8----8--------7(fast)-8(fast)--------------
-----------------------------------------------------------

POST CHORUS:
-----------------------------------------------------------
-----------------------------------------------------------
-1(fast)----------3(fast)-----------0(fast)---------4(fast)
-----------------------------------------------------------

VERSE PART 2:
Play same thing as VERSE 1 part.  Lines are "A banner year 
1868, a bitter end a twist of fate.  Maps won't hold this 
melanoma, blurry part of Oklahoma, where Custer shot and 
killed Black Kettle.

Play PRE CHORUS

Play CHORUS

Bridge:
-----------------------------------------------------------
---5-6-8-6-5---5--------------------7-8-10-8-7---7---------
-6-----------6---6-REPEAT then----8------------8---8-repeat
-----------------------------------------------------------
Play first part then

A promise is a promise, a judge of character.  
-----------------------------------------------------------
-----------------------------------------------------------
-----------3(fast)--------------3(fast)--------------------
--3-(fast)--------------3(fast)----------------------------

His banner over me is love
-----------------------------------------------------------
-----------------------------------------------------------
--0-(fast)---5(fast)--3(fast)--5(fast)---------------------
-----------------------------------------------------------

PLAY THE CHORUS PART A COUPLE TIMES MORE THAN THE CHORUS!

That's the whole song!
Any questions comments email me @ theroadrunner@mgfairfax.rr.com.  
Bass players rock!

Comments about this tab

No comments/corrections found. Add your own

Complimentary Christian Ringtones
Dadamobile and CGR have teamed up to bring your favorite Christian artists right to your phone. Sign up today and get 10 complementary ringtones!
Tab Country
Did you know CGR has a sister site w/ country guitar tabs? Well we do! Its called Tab Country. It has a great archive with a lot of country tabs.
Rockin Tabs
Are you looking for a site that has rock guitar tabs? Then Rockintabs.com is the place for you. It is a budding site with many rock guitar tabs. Submit your tab today.
Tab Gallery
Tab Gallery has a compilation of christian, rock, and country tabs all in one place. Come visit us.