Bass Tabs
(THIRD DAY) OR BY ARTIST NAME (JENNIFER KNAPP)
0-9|A|B|C|D|E|F|G|H|I|J|K|L|M|N|O|P|Q|R|S|T|U|V|W|X|Y|Z

Join Us Today!

Don't strum alone...
be a part of the largest online Christian music community. Browse thousands of guitar tabs and chat w/ musicians like yourself.


It's Free!

Ace Troubleshooter - Fortress

This tab has not yet been rated for accuracy.Sorry, but you must be logged in to rate this tab.
Click here to log-in, or you can click here to register.
(Registration is free)

All songs owned by Integrity and Brentwood-Benson are used by permission. If you make copies of any song on this website, be sure to report your usage to CCLI.
Fortress
Ace Troubleshooter-“Ace Troublshooter”
Bass Tab by: Max Mitchell
Drop D Tuning
NOTE: Notes are repeated numerous times
NOTE: This bass version is made to go along with the guitar version by
Britain Roda

-I am not a bass player, but this sounds right. To me, this is pretty
accurate, but if it isn't, feel free to correct it and post it
(considering the fact that I don't even play bass)
------------------------------------------------------------------------------
Intro
0:25
G	|  -------------------------------------------------------------
D	|  -------------------------------------------------------------
A	|  ---5---------------------------------------------------------
D	|  -------------------------------------------------------------

Verse 1-DO TWICE
0:36
G	|  -------------------------------------------------------------
D	|  -------------------------------------------------------------
A	|  ----5--5----------4-4----------------------------------------
D	|  -------------------------------5----5-4-----5----5-4---------
                 Pm---------   pm--------  pm--   pm--- pm--   --------

Chorus 1-0:57
G	|  -------------------------------------------------------------
D	|  -------------------------------------------------------------
A	|  --5----------------------------------------------------------
D	|  -------------------------------------------------------------

1:04-DO TWICE
G	|  -------------------------------------------------------------
D	|  -------------------------------------------------------------
A	|  -------------------------------------------------------------
D	|  ---9-------7-------5-5--0-0-5-5--0-0-------------------------


Verse 2-same as verse 1
Chorus 2-same as chorus 1

End of Chorus-2:16
G	|  -------------------------------------------------------------
D	|  -------------------------------------------------------------
A	|  ---4------2-----0--------------------------------------------
D	|  -------------------------------------------------------------

Bass solo-2:23ish
G	|  -------------------------------------------------------------
D	|  -------------------------------------------------------------
A	|  ---------------------5-----4-----7---------------------------
D	|  --5---4---5----4----------------------5----4----5----4-------

(no bass during gradual climb by guitars)

Interlude
2:48
G	|  -------------------------------------------------------------
D	|  -------------------------------------------------------------
A	|  ---5------4------7-------------------------------------------
D	|  ---------------------------5-----4-----5------4--------------

3:00
G	|  -----------------p-------------------------------------------
D	|  -----------------a-------------------------------------------
A	|  ---5------4------u-------------------------------------------
D	|  -----------------s---------5------4-----5-------4------------
                            e
3:11
G	|  ---------p---------------------------------------------------
D	|  ---------a---------------------------------------------------
A	|  ---5-----u---------------------------------------------------
D	|  ---------s---------------------------------------------------
                    e

3:16
G	|  -------------------------------------------------------------
D	|  -------------------------------------------------------------
A	|  -------------------------------------------------------------
D	|  ---9-------7-------5-5--0-0-5-5--0-0-------------------------

3:27
G	|  --------------------------------------p----------------------
D	|  --------------------------------------a----------------------
A	|  --------------------------------------u----------------------
D	|  ---9-------7-------5-5--0-0-5-5--0-0--s----------------------
                                                 e

3:38
G	|  -------------------------------------------------------------
D	|  -------------------------------------------------------------
A	|  -------------------------------------------------------------
D	|  ---9-------7-------5-5--0-0-5-5--0-0-------------------------

3:49
G	|  -----------------------------------------r-------------------
D	|  ---------------------------------------l-i-------------------
A	|  ---------------------------------------e-n-------------------
D	|  ---9-------7-------5-5--0-0-5-5--0-0---t-g-------------------

Comments about this tab

No comments/corrections found. Add your own

Complimentary Christian Ringtones
Dadamobile and CGR have teamed up to bring your favorite Christian artists right to your phone. Sign up today and get 10 complementary ringtones!
Tab Country
Did you know CGR has a sister site w/ country guitar tabs? Well we do! Its called Tab Country. It has a great archive with a lot of country tabs.
Rockin Tabs
Are you looking for a site that has rock guitar tabs? Then Rockintabs.com is the place for you. It is a budding site with many rock guitar tabs. Submit your tab today.
Tab Gallery
Tab Gallery has a compilation of christian, rock, and country tabs all in one place. Come visit us.