Bass Tabs
(THIRD DAY) OR BY ARTIST NAME (JENNIFER KNAPP)
0-9|A|B|C|D|E|F|G|H|I|J|K|L|M|N|O|P|Q|R|S|T|U|V|W|X|Y|Z

Join Us Today!

Don't strum alone...
be a part of the largest online Christian music community. Browse thousands of guitar tabs and chat w/ musicians like yourself.


It's Free!

Relient K - My Way Or The Highway

This tab has been rated a 5.00 out of 5 for accuracy. (2 votes)Sorry, but you must be logged in to rate this tab.
Click here to log-in, or you can click here to register.
(Registration is free)

All songs owned by Integrity and Brentwood-Benson are used by permission. If you make copies of any song on this website, be sure to report your usage to CCLI.
Song: My Way Or The Highway
Artist: Relient K
Album: The Anatomy of the Tongue in Cheek
Tabbed by Corey Oxendine (rebornsince2000@aol.com)


Intro:
G-----------------------
D-----------------------
A--3--3--3333-----------
E-------------1--1--1111
 play that 4x, then pause for 6 seconds when the
 cello plays,then play this:
G------------------
D------------------
A------------------
E--1111111133333333

Verse 1&2:
G---------------------------------
D---------------------------------
A--3333333333333333---------------
E------------------111111113333333
 play that 2x then this:
G-------------------------
D-------------------------
A--5-5-5-5-3-3-3-3-3-3-3-3
E-------------------------

G-------------------------
D-------------------------
A-------------------------
E--5-5-3-3-1-1-1-1-3-3-3-3

Breakdown: 0:48 and at 2:21
G-----------------------------------------
D-----------------------------------------
A--3-3-3--33------------------------------
E-----------3-3-3--3331-1-1--1113-3-3--333

G---------------------------------------------
D---------------------------------------------
A--3-3-3--333---------------------------------
E------------3-3-3--333-1-1-1-1---1---1111---1

Chorus:
G--------------------------
D--------------------------
A--3--3--33-----0--0--00---
E----------111----------111
 play that 2x then:
G----------------------------------
D----------------------------------
A--33333333--------00000000--------
E----------11111111--------11111111

Outro:
G------------------------
D------------------------
A--3--3--3333------------
E--------------1--1--1111
 play that 6x then:
G------------------------
D------------------------
A--3-let-ring------------
E--------------1-let-ring



Well thats my tab, it was my first, hope u liked it.
If you have any corrections e-mail me.  Also e-mail me
to tell me how much you love the lord.  Its always nice 
to know another teen that is in love with the lord like
I am. Always know that your gifts are given to you by him.
So use them for his glory.

Comments about this tab

No comments/corrections found. Add your own

Complimentary Christian Ringtones
Dadamobile and CGR have teamed up to bring your favorite Christian artists right to your phone. Sign up today and get 10 complementary ringtones!
Tab Country
Did you know CGR has a sister site w/ country guitar tabs? Well we do! Its called Tab Country. It has a great archive with a lot of country tabs.
Rockin Tabs
Are you looking for a site that has rock guitar tabs? Then Rockintabs.com is the place for you. It is a budding site with many rock guitar tabs. Submit your tab today.
Tab Gallery
Tab Gallery has a compilation of christian, rock, and country tabs all in one place. Come visit us.