Bass Tabs
(THIRD DAY) OR BY ARTIST NAME (JENNIFER KNAPP)
0-9|A|B|C|D|E|F|G|H|I|J|K|L|M|N|O|P|Q|R|S|T|U|V|W|X|Y|Z

Join Us Today!

Don't strum alone...
be a part of the largest online Christian music community. Browse thousands of guitar tabs and chat w/ musicians like yourself.


It's Free!

Five Iron Frenzy - Anthem

This tab has not yet been rated for accuracy.Sorry, but you must be logged in to rate this tab.
Click here to log-in, or you can click here to register.
(Registration is free)

All songs owned by Integrity and Brentwood-Benson are used by permission. If you make copies of any song on this website, be sure to report your usage to CCLI.
Bass Tab for "Anthem" by Five Iron Frenzy
Tabbed by Josh Vajda, 2/17/2001
jd_vajdaman@hotmail.com
Upbeats and Beatdowns, 1996
5 Minute Walk Records
Bass - Keith Hoerig
Copyright: 5 Minute Walk Music/ASCAP
Visit http://www.geocities.com/thevajdaman for more tabs and music.
--------------------------------------------------------------------
Instructions:
Nxt = repeat (N) note (t) number of times (3x5 would be third fret 5 times)
0 = play open string


Intro:
(Our nations stands...)
G| --------
D| --------
A| 5-2-----
E| ----3-5-
   (repeat)


Verse 1:
(All this talk of freedom...)
G| --------------------------------
D| --------------------------------
A| 5-------2-5-4-2---5-2-----4-7-4-
E| --2-3-5---------3-----3-5-------
                           (repeat)


Chorus:
(I can't fall anymore...)
G| ----------------------------------------------------------------------------
D| ----------------------------------------------------------------------------
A| ----5x2-2x2----7-4-------5x2-2x2-----------5x2-2x2-----7-4------5x2-2x2-----
E| 3x4--------5x5-----5-3x4---------5x7-4-3x4---------5x5----5-3x4---------5x8-


Verse 2: [same as verse 1, but with a pause in the middle]
(I can't see...)
G| ----------------------------------------------------------------
D| ----------------------------------------------------------------
A| 5-------2-5-4-2---5-2-----4-7-4-5-------2-5-4-2---5-2-----4-7-4-
E| ----------------3-----3-5---------2-3-5---------3-----3-5-------

(chorus)

Bridge 1:
(Pushing us a drug that you call...)
G| ------------------------------------------
D| ------------------------------------------
A| 5x4-2x2-----2x4-2-1-0-5x2---------2x2-----
E| --------3x2---------------5x2-3x2-----5x8-
                                     (repeat)

Bridge 2:
G| --------------------  G| --------------------  G| ----------------
D| 0x8-------------2x4-  D| 0x8-----------------  D| 0x8-------------
A| ----0x8-2x8-0x4-----  A| ----0x8-2x8-0x4-4x4-  A| ----0x8-2x8-0x8-
E| --------------------  E| --------------------  E| ----------------
                            ^..(play 6 times)..^

(repeat chorus and bridge 1)

Comments about this tab

No comments/corrections found. Add your own

Complimentary Christian Ringtones
Dadamobile and CGR have teamed up to bring your favorite Christian artists right to your phone. Sign up today and get 10 complementary ringtones!
Tab Country
Did you know CGR has a sister site w/ country guitar tabs? Well we do! Its called Tab Country. It has a great archive with a lot of country tabs.
Rockin Tabs
Are you looking for a site that has rock guitar tabs? Then Rockintabs.com is the place for you. It is a budding site with many rock guitar tabs. Submit your tab today.
Tab Gallery
Tab Gallery has a compilation of christian, rock, and country tabs all in one place. Come visit us.