Bass Tabs
(THIRD DAY) OR BY ARTIST NAME (JENNIFER KNAPP)
0-9|A|B|C|D|E|F|G|H|I|J|K|L|M|N|O|P|Q|R|S|T|U|V|W|X|Y|Z

Join Us Today!

Don't strum alone...
be a part of the largest online Christian music community. Browse thousands of guitar tabs and chat w/ musicians like yourself.


It's Free!

Sanctus Real - Say It Loud

This tab has been rated a 4.29 out of 5 for accuracy. (7 votes)Sorry, but you must be logged in to rate this tab.
Click here to log-in, or you can click here to register.
(Registration is free)

All songs owned by Integrity and Brentwood-Benson are used by permission. If you make copies of any song on this website, be sure to report your usage to CCLI.
Sanctus Real - Say It Loud
Copyright 2002 Birdwing Music

This is not completely perfect; I made this tab from a guitar tab I
already made. There are a few small parts that I need to tab, but other
than that, this should let you play this song quite well.

Standard Tuning

/,\ = slide

  Intro
G|--------------------|
D|--------------------|
A|-4------------------|
E|--------------------|

G|----------------------------------------------------------|
D|-------------------------------------3-----3-----3-----3/4|
A|--/4--4-4--------4-4--4-4---------------------------------|
E|----------2-2--2----------6-6--6-2-2---2-2---2-2---2-2----|
         
                                          
  Verse

  Repeat 2x
G|--------------------------------------------------------------------------|
D|-----------------------------------------------------3-----3-----3-----3/4|
A|-4-4--4-4--------4-4--4-4--------4-4--4-4---------------------------------|
E|----------6-6--6----------2-2--2----------6-6--6-2-2---2-2---2-2---2-2----|


  Prechorus

G|-------------------------------------------------------------|
D|-------------------------------------------------------------|
A|-----------------1-1-1-1-1-1-1-1-4-4--4-4-4--4-8--8---8--4-4-|
E|-4-4-4-4-4-4-4-4---------------------------------------------|

G|-----------------------------------------------------------------|
D|-----------------------------------------------------------------|
A|-----------------1-1-1-1-1-1-1-1---------------------------------|
E|-4-4-4-4-4-4-4-4-----------------2-2-2-2-2-2-2-2-2-2-2-2-2-2-2-2-|
   

  Chorus

  Repeat 2x
G|-----------------------------------------------------------------|
D|-----------------------------------------------------------------|
A|-4-4-4-4-4-4-4-4-----------------1-1-1-1-1-1-1-1-----------------|
E|-----------------4-4-4-4-4-4-4-4-----------------2-2-2-2-4-4-4-4-|

G|-----------------------------------------------------------------|
D|-----------------------------------------------------------------|
A|-4-4-4-4-4-4-4-4-----------------1-1-1-1-1-1-1-1-----------------|
E|-----------------4-4-4-4-4-4-4-4-----------------2-2-2-2-2-2-2-2-|

G|----------------------------------------------------------|
D|----------------------------------------------------------|
A|-4--------------------------------------------------------|
E|-----------------4---------------2-2--2-2-2--2-1-1--1-2-2-|

  play through verse/prechorus/chorus again except the last line of
  the chorus is different it goes:
G|---------------------------------------------------|
D|---------------------------------------------------|
A|-4-------------------------------------------------|
E|-----------------4---------------2-2----2-2----2-2-|
  

  Bridge

G|-----------------------------------------------------------------|
D|-----------------------------------------------------------------|
A|-----------------------------------------------------------------|
E|-4-4-4-4-4-4-4-4-2-2-2-2-2-2-2-2-1-1-1-1-1-1-1-1-2-2-2-2-2-2-2-2-|

  Repeat 3x
G|---------------------------------|
D|---------------------------------|
A|---------------------------------|
E|-4-4-4-4-4-4-4-4-2-2-2-2-2-2-2-2-|

G|---------------------------------------------------|
D|---------------------------------------------------|
A|-1-1-1-1-1-1-1-1-----------------------------------|
E|-----------------4-4-4-4-4-4-4-4-2-2-2-2-2-2-2-2/4-|


  Prechorus 2

G|---------------|
D|---------------|
A|-4-------4-----|
E|-----6-------2-|

G|-------------------------------------------------------------|
D|-------------------------------------------------------------|
A|-----------------1-1-1-1-1-1-1-1-4-4--4-4-4--4-8--8---8--4-4-|
E|-4-4-4-4-4-4-4-4---------------------------------------------|

G|-----------------------------------------------------------|
D|-----------------------------------------------------------|
A|-----------------1-1-1-1-1-1-1-1---------------------------|
E|-4-4-4-4-4-4-4-4-----------------2-2-2-2-2-2-2-2-2-2-2-2-2-|
                                      

  Last Chorus

G|-----------------------------------------------------------------|
D|-----------------------------------------------------------------|
A|-4-4-4-4-4-4-4-4-3-3-3-3-3-3-3-3-1-1-1-1-1-1-1-1-----------------|
E|-------------------------------------------------4-4-4-4-2-2-2-2-|

G|-----------------------------------------------------------------|
D|-----------------------------------------------------------------|
A|-------------------------------------------------1-1-1-1-3-3-3-3-|
E|-1-1-1-1-1-1-1-1-2-2-2-2-2-2-2-2-4-4-4-4-4-4-4-4-----------------|

  Repeat 2x
G|-----------------------------------------------------------------|
D|-----------------------------------------------------------------|
A|-4-4-4-4-4-4-4-4-----------------1-1-1-1-1-1-1-1-----------------|
E|-----------------4-4-4-4-4-4-4-4-----------------2-2-2-2-4-4-4-4-|

G|-------------------------------------------------------|
D|-------------------------------------------------------|
A|-4--4--4-4-4-4--4-----------1--1--1-1-1-1--1-----------|
E|------------------4--4--4-4------------------2--2--2-2-|

G|-------------------------------------------------------|
D|-------------------------------------------------------|
A|-4--4--4-4-4-4--4-----------2--2--2-2-2-2--2-----------|
E|------------------4--4--4-4------------------2--2--2-2-|

G|----------------------------|
D|----------------------------|
A|-4-4--4-4-4--------4--------|
E|------------4-4--4----------|

Comments about this tab

No comments/corrections found. Add your own

Complimentary Christian Ringtones
Dadamobile and CGR have teamed up to bring your favorite Christian artists right to your phone. Sign up today and get 10 complementary ringtones!
Tab Country
Did you know CGR has a sister site w/ country guitar tabs? Well we do! Its called Tab Country. It has a great archive with a lot of country tabs.
Rockin Tabs
Are you looking for a site that has rock guitar tabs? Then Rockintabs.com is the place for you. It is a budding site with many rock guitar tabs. Submit your tab today.
Tab Gallery
Tab Gallery has a compilation of christian, rock, and country tabs all in one place. Come visit us.