Bass Tabs
(THIRD DAY) OR BY ARTIST NAME (JENNIFER KNAPP)
0-9|A|B|C|D|E|F|G|H|I|J|K|L|M|N|O|P|Q|R|S|T|U|V|W|X|Y|Z

Join Us Today!

Don't strum alone...
be a part of the largest online Christian music community. Browse thousands of guitar tabs and chat w/ musicians like yourself.


It's Free!

This tab has not yet been rated for accuracy.Sorry, but you must be logged in to rate this tab.
Click here to log-in, or you can click here to register.
(Registration is free)

All songs owned by Integrity and Brentwood-Benson are used by permission. If you make copies of any song on this website, be sure to report your usage to CCLI.
Title:  I'm just a man
Artist:  The Orange County Supertones
Album:  Hi-Fi Revival


This is one of the more simple Supertone bass lines, which is a main
reason I'm able to write it out.  the song is quite simple and straight
foward except on spot in the chorus, where Tony sneaks in a little
walk/run/whatever.


Intro:

G|---------------------------------|
D|---------------------------------|
A|---------------------------------|
E|---0-0--3-5--0--5-7--0--7-5-5-5--|  Four times

Preverse

G|-------------------------|
D|-------------------------|
A|-------------------------|
E|---0----5-----0----7-7---|

First half of verse one you play nothing.

Then

G|-----------|
D|-----------|
A|-----------|
E|--5-7-7-7--|

G|-----------------------|
D|-----------------------|
A|-----------------------|
E|--0--0-5--0-0-7-7-7-7--| Twice

G|------------------------|
D|------------------------|
A|------------------------|
E|--5--5-5--5--7--7-7--7--| Twice, but hold the last note the second time


Chorus

G|-----------------------------------------------|
D|-----------------------------------------------|
A|-----------------------------5H7-7--7-7-7P5----|
E|--5--5-5--0--0-0-0--7--7-7------------------7--|


G|---------------------------------------------------|
D|---------------------------------------------------|
A|---------------------------------------------------|
E|--5--5-5--0--0-0-0--7--7-7--0-0-0-0---7-7-7-7-7-7--|


G|-----------------------------------------------|
D|-----------------------------------------------|
A|-----------------------------5H7-7--7-7-5H7----|
E|--5--5-5--0--0-0-0--7--7-7---------------------|

G|---------------------------------------------------|
D|---------------------------------------------------|
A|---------------------------------------------------|
E|--5--5-5--0--0-0-0--7--7-7--0-0-0-0---7-7-7-7-7-7--|

Then play the intro again twice and hold out while the horns and drums play


Second verse

G|--------------------------------------------------------|
D|--------------------------------------------------------|
A|--------------------------------------------------------|
E|--0-0-0-0-0-0--5-5-5-5-5-5--0-0-0-0-0-0-0--7-7-7-7-7-7--| Play twice

G|------------------------------------------------------|
D|------------------------------------------------------|
A|------------------------------------------------------|
E|--5-5-5-5-5-5--7-7-7-7-7-7--5-5-5-5-5-5--7-7-7-7-7-7--|

G|-----------------------|
D|-----------------------|
A|-----------------------|
E|--0--0-5--0-0-7-7-7-7--| Twice

G|------------------------|
D|------------------------|
A|------------------------|
E|--5--5-5--5--7--7-7--7--| Twice, but hold the last note the second time


Chorus again


Bridge:

G|------------------------------------------|
D|------------------------------------------|
A|------------7------------9----------------|
E|--5-5-5-5-5----7-7-7-7-7-----/5--/7--/12--|

Then the intro again, and that's all she wrote.

I tried ot tab this as accurate as possible, but I'm sure I've messed
something up.  If you have any questions or comments you can email me
at cornpatch777@hotmail.com

Scott Beavers
Rage for the Rock.

Comments about this tab

No comments/corrections found. Add your own

Complimentary Christian Ringtones
Dadamobile and CGR have teamed up to bring your favorite Christian artists right to your phone. Sign up today and get 10 complementary ringtones!
Tab Country
Did you know CGR has a sister site w/ country guitar tabs? Well we do! Its called Tab Country. It has a great archive with a lot of country tabs.
Rockin Tabs
Are you looking for a site that has rock guitar tabs? Then Rockintabs.com is the place for you. It is a budding site with many rock guitar tabs. Submit your tab today.
Tab Gallery
Tab Gallery has a compilation of christian, rock, and country tabs all in one place. Come visit us.