Bass Tabs
(THIRD DAY) OR BY ARTIST NAME (JENNIFER KNAPP)
0-9|A|B|C|D|E|F|G|H|I|J|K|L|M|N|O|P|Q|R|S|T|U|V|W|X|Y|Z

Join Us Today!

Don't strum alone...
be a part of the largest online Christian music community. Browse thousands of guitar tabs and chat w/ musicians like yourself.


It's Free!

Five Iron Frenzy - A New Hope

This tab has been rated a 4.00 out of 5 for accuracy. (1 vote)Sorry, but you must be logged in to rate this tab.
Click here to log-in, or you can click here to register.
(Registration is free)

All songs owned by Integrity and Brentwood-Benson are used by permission. If you make copies of any song on this website, be sure to report your usage to CCLI.
A New Hope
Five Iron Frenzy Live: Proof That the Youth Are Revolting
Copyright 1999 Five Minute Walk Music
Tabbed by: Bryan Cool (bcool@primary.net)

I think this is the first bass tab out for PTtYAR(see title). I think
this song sounds awesome, so I tabbed it. Please e-mail me and tell me if 
you found this tab useful, and as always comments questions, etc. can also
be e-mailed to me. Have a nice day!

Fast Riff
G------------------------------
D------------------------------
A-----774-664-44-------774-4-6-
E-4477---7---7--77-4-77---7----

 
(2x)
G--------3--3--------
D----4--4--4-4-------
A---6--6--6---664----
E-47--7----------76--

(2x)
G--------------------------------
D------------6------------------- 
A-----4744447-----4-------(777)-- 
E-5555--------2222-2-2222-(2)----
2x, play the(777) first time, just the
(2) second time (parentheses are just 
for reference; no real meaning)


Chorus
G----------------
D----------------
A-------4------4-
E-4-7-0----4-0---

Hold Riff
Hold E--7-- and then slide down, going into:


(Real short notes- staccato; 3x)
G----------------------------------------------
D----------------------------------------------
A-2-22-2-2-22/7-77-7-7-77/9--------------------
E----------------------------------------------

G----------------------------------------------
D----------------------------------------------
A-99-9-9-99/(11)-(11)(11)-(13)(13)-(13)(13)\---
E----------------------------------------------

(1x)
NOTE: Each number is a bunch of notes real fast
G-------------------
D-------------------
A-2/7/9/(11)-(13)\--
E-------------------


Order:
Fast Riff (4x)
Verse 
Chorus (2x)
Fast Riff (2x)
Verse
Chorus (4x)
Hold Riff
Bridge
Chorus (4x)
End on Ab on E string (E--4--)

Comments about this tab

No comments/corrections found. Add your own

Complimentary Christian Ringtones
Dadamobile and CGR have teamed up to bring your favorite Christian artists right to your phone. Sign up today and get 10 complementary ringtones!
Tab Country
Did you know CGR has a sister site w/ country guitar tabs? Well we do! Its called Tab Country. It has a great archive with a lot of country tabs.
Rockin Tabs
Are you looking for a site that has rock guitar tabs? Then Rockintabs.com is the place for you. It is a budding site with many rock guitar tabs. Submit your tab today.
Tab Gallery
Tab Gallery has a compilation of christian, rock, and country tabs all in one place. Come visit us.