Bass Tabs
(THIRD DAY) OR BY ARTIST NAME (JENNIFER KNAPP)
0-9|A|B|C|D|E|F|G|H|I|J|K|L|M|N|O|P|Q|R|S|T|U|V|W|X|Y|Z

Join Us Today!

Don't strum alone...
be a part of the largest online Christian music community. Browse thousands of guitar tabs and chat w/ musicians like yourself.


It's Free!

This tab has been rated a 3.88 out of 5 for accuracy. (8 votes)Sorry, but you must be logged in to rate this tab.
Click here to log-in, or you can click here to register.
(Registration is free)

All songs owned by Integrity and Brentwood-Benson are used by permission. If you make copies of any song on this website, be sure to report your usage to CCLI.
Better Is One Day
Matt Redman

Submitted by: TallBassPlyr

Intro: X2
_____E_________________________A___________B
G|---9-----9------9-----9------6-----6-----8-----8-------------
D|-----9-----9------9-----9------7-----7-----9-----9-----------
A|---7---7-7---7--7---7-7---7------7-7---7-----9-9---9---------
E|-----------------------------5-----------7-------------------

VERSE X2
_____E_________________________A___________B
G|---9-----9------9-----9------6-----6-----8-----8-------------
D|-----9-----9------9-----9------7-----7-----9-----9-----------
A|---7---7-7---7--7---7-7---7------7-7---7-----9-9---9---------
E|-----------------------------5-----------7-------------------
_____E_________________________B
G|---9-----9------9-----9------8-----8-------------------------
D|-----9-----9------9-----9------9-----9-----------------------
A|---7---7-7---7--7---7-7---7------9-9---9---------------------
E|-----------------------------7-------------------------------

CHORUS
____A___________B_______C#m__B___A___________B
G|--6-----6-----8----------------------------------------------
D|----7-----7-----9-----11---9---7-----7-----9------9----------
A|------7-7---7-----9--------------7-----7-----9---------------
E|--5-----------7-------9----7---5---5-5---5-7---9--7----------

INTERLUDE X4
____C#m_________B__A________B__C#m
G|-----------------------------------------
D|--11--11--11--9--7--7--7--9--11--11--11--
A|-----------------------------------------
E|--9---9---9---7--5--5--5--7--9---9---9---

THEN
____A________B
G|-----------------------------------------
D|--7--7--7--9--9--9-----------------------
A|-----------------------------------------
E|--5--5--5--7--7--7-----------------------


ORDER:
INTRO
VERSE
CHORUS
VERSE
CHORUS
INTERLUDE
CHORUS X2
INTRO

Comments about this tab

No comments/corrections found. Add your own

Complimentary Christian Ringtones
Dadamobile and CGR have teamed up to bring your favorite Christian artists right to your phone. Sign up today and get 10 complementary ringtones!
Tab Country
Did you know CGR has a sister site w/ country guitar tabs? Well we do! Its called Tab Country. It has a great archive with a lot of country tabs.
Rockin Tabs
Are you looking for a site that has rock guitar tabs? Then Rockintabs.com is the place for you. It is a budding site with many rock guitar tabs. Submit your tab today.
Tab Gallery
Tab Gallery has a compilation of christian, rock, and country tabs all in one place. Come visit us.