Bass Tabs
(THIRD DAY) OR BY ARTIST NAME (JENNIFER KNAPP)
0-9|A|B|C|D|E|F|G|H|I|J|K|L|M|N|O|P|Q|R|S|T|U|V|W|X|Y|Z

Join Us Today!

Don't strum alone...
be a part of the largest online Christian music community. Browse thousands of guitar tabs and chat w/ musicians like yourself.


It's Free!

Pax217 - Check 217

This tab has been rated a 5.00 out of 5 for accuracy. (2 votes)Sorry, but you must be logged in to rate this tab.
Click here to log-in, or you can click here to register.
(Registration is free)

All songs owned by Integrity and Brentwood-Benson are used by permission. If you make copies of any song on this website, be sure to report your usage to CCLI.
Song: Check 217
Artist: Pax 217
CD: TwoSeventeen

Tabbed by Deren (deren_s@hotmail.com)

NOTES: This song has some really cool rega basslines.
Drop D Tunning Dadg Low to High.

h=hammer on
p=puil off
/=slide
*=play the notes with the star inbetween them faster than normal


INTRO/CHORUS:

g-----------------------------------------|
d-----------------------------------------|
a----------3-5-3--------------------3-5-3-| repeat as needed
D--0h2h3p0-------0h2h3/5----0h2h3p0-------|

VERSE 1:

g-------------------------------|
d-------------------------------|
a----0-0-1-1-0------------------| Listen for timming, note the *
D-0-0----------3----0-0*2-0-3---|

CHORUS:

Beggining of VERSE 2 play this rift:
g----2-2*3-3-2--------------|
d-0 0----------3--0-0*2-0-3-|
a---------------------------| then back to the VERSE 1 rift
D---------------------------|

BRIDGE: while guitar plays that cool little rift, bass plays

g----------------------------------------------------------------|
d----------------------------------------------------------------|
a---------------------------22222222-33333333-22222222-33333333--|
D--0-0-3hold--0-0-3hold------------------------------------------|

CHORUS:

thats about it, sounds good to me.
Questions, comments, concerns? please email me.
take care.

Comments about this tab

No comments/corrections found. Add your own

Complimentary Christian Ringtones
Dadamobile and CGR have teamed up to bring your favorite Christian artists right to your phone. Sign up today and get 10 complementary ringtones!
Tab Country
Did you know CGR has a sister site w/ country guitar tabs? Well we do! Its called Tab Country. It has a great archive with a lot of country tabs.
Rockin Tabs
Are you looking for a site that has rock guitar tabs? Then Rockintabs.com is the place for you. It is a budding site with many rock guitar tabs. Submit your tab today.
Tab Gallery
Tab Gallery has a compilation of christian, rock, and country tabs all in one place. Come visit us.