Bass Tabs
(THIRD DAY) OR BY ARTIST NAME (JENNIFER KNAPP)
0-9|A|B|C|D|E|F|G|H|I|J|K|L|M|N|O|P|Q|R|S|T|U|V|W|X|Y|Z

Join Us Today!

Don't strum alone...
be a part of the largest online Christian music community. Browse thousands of guitar tabs and chat w/ musicians like yourself.


It's Free!

This tab has been rated a 5.00 out of 5 for accuracy. (4 votes)Sorry, but you must be logged in to rate this tab.
Click here to log-in, or you can click here to register.
(Registration is free)

All songs owned by Integrity and Brentwood-Benson are used by permission. If you make copies of any song on this website, be sure to report your usage to CCLI.
Artist: John Newton
Song: Amazing Grace
Transcribed by: Boliver Allmon III (godblesusfreaks@christianemail.com)

You play this completely with harmonics. when you see 3.2 that means to
play just pass the third fret and 3.8 would be just before the fourth fret.
I wrote out the timing q=quarter notes, h=halfnotes, e=eighth notes and dq
would stand for dotted quarters.

here is the timing.

q h  eeh  q h  q h  q h  eeh  q  w    q h  eeh  q h  eeh  q h eeh  q w

now here is the song. 

G----------------------------------------------------------------------------
D-----5---3.8-5-3.8-------5------------5---3.8-5-3.8---------3.2-------------
A--5------------------3.2--------5--5-------------------3.2------------------
E----------------------------3.2---------------------------------------------


G----------------------------------------------------------------------------
D-3.8--3.2---3.8--3.2--3.8----5-----------5-5------------5--3.8--5--3.8-----5
A-------------------------------5--------------------5-5----------------3.2--
E-----------------------------------3.2----------3.2-------------------------

I really enjoy this song and enjoy it even better playing it in harmonics.
The tab may not be written the best, but the notes are correct. Just follow
the timing and you will be able to play this in no time flat. Contact me if
you have any questions or just want to talk about God or music or something.

God bless  

Comments about this tab

No comments/corrections found. Add your own

Complimentary Christian Ringtones
Dadamobile and CGR have teamed up to bring your favorite Christian artists right to your phone. Sign up today and get 10 complementary ringtones!
Tab Country
Did you know CGR has a sister site w/ country guitar tabs? Well we do! Its called Tab Country. It has a great archive with a lot of country tabs.
Rockin Tabs
Are you looking for a site that has rock guitar tabs? Then Rockintabs.com is the place for you. It is a budding site with many rock guitar tabs. Submit your tab today.
Tab Gallery
Tab Gallery has a compilation of christian, rock, and country tabs all in one place. Come visit us.