Bass Tabs
(THIRD DAY) OR BY ARTIST NAME (JENNIFER KNAPP)
0-9|A|B|C|D|E|F|G|H|I|J|K|L|M|N|O|P|Q|R|S|T|U|V|W|X|Y|Z

Join Us Today!

Don't strum alone...
be a part of the largest online Christian music community. Browse thousands of guitar tabs and chat w/ musicians like yourself.


It's Free!

Everyday Sunday - Stand Up

This tab has been rated a 4.00 out of 5 for accuracy. (2 votes)Sorry, but you must be logged in to rate this tab.
Click here to log-in, or you can click here to register.
(Registration is free)

All songs owned by Integrity and Brentwood-Benson are used by permission. If you make copies of any song on this website, be sure to report your usage to CCLI.
Everyday Sunday
'Stand Up' Bass Tab

This is a really easy song to play on the bass...it's mostly just open strings.

Intro:

G|-----0h2--2-----0h2--2-----0h2--2--|
D|--0----------0----------0----------|
A|-----------------------------------|
E|-----------------------------------|

1st Chorus : Play this 2x

G|-----2--0--2-----2--0--2-----2--0--2-----2--0--2-----|
D|--0-----------0-----------0-----------0-----------0--|
A|-----------------------------------------------------|
E|-----------------------------------------------------|

1st Half of Verse: No Bass

2nd Half of Verse: Play this 2x 

G|-----0h2--2-----0h2--2-----0h2--2--0--0-0-0|
D|--0----------0----------0------------------|
A|-------------------------------------------|
E|-------------------------------------------|

2nd Chorus:

G|-----2--0--2-----2--0--2-----2--0--2-----2--0--2|
D|--0-----------0-----------0-----------0---------|
A|------------------------------------------------|
E|------------------------------------------------|

Intro to Middle Section:

G|-------2-------------------2-------0--|
D|--0---------0---------0---------------|
A|--------------------------------------|
E|--------------------------------------|

Middle Section:

G|------------------------------------------------------------|
D|--0-------------------0-------------------5--------5-5-5-5\0|
A|--------------2---2---------------2---2---------------------|
E|---------3------------------3-------------------------------|

**The open D string this ends on is the first open D in the chorus**

3rd Chorus : Play this 2x

G|-----2--0--2-----2--0--2-----2--0--2-----2--0--2|
D|--0-----------0-----------0-----------0---------|
A|------------------------------------------------|
E|------------------------------------------------|

Ending:

G|-----2--0--2-----2--0--2--|
D|--0-----------0-----------|
A|--------------------------|
E|--------------------------|

Finish with a long open D string.

This is my first tab and I'm a beginning bass player, so if there are
any mistakes or anything like that let me know: citrus23@lycos.com

Have fun...this is a great song!
Lisa

Comments about this tab

No comments/corrections found. Add your own

Complimentary Christian Ringtones
Dadamobile and CGR have teamed up to bring your favorite Christian artists right to your phone. Sign up today and get 10 complementary ringtones!
Tab Country
Did you know CGR has a sister site w/ country guitar tabs? Well we do! Its called Tab Country. It has a great archive with a lot of country tabs.
Rockin Tabs
Are you looking for a site that has rock guitar tabs? Then Rockintabs.com is the place for you. It is a budding site with many rock guitar tabs. Submit your tab today.
Tab Gallery
Tab Gallery has a compilation of christian, rock, and country tabs all in one place. Come visit us.