Bass Tabs
(THIRD DAY) OR BY ARTIST NAME (JENNIFER KNAPP)
0-9|A|B|C|D|E|F|G|H|I|J|K|L|M|N|O|P|Q|R|S|T|U|V|W|X|Y|Z

Join Us Today!

Don't strum alone...
be a part of the largest online Christian music community. Browse thousands of guitar tabs and chat w/ musicians like yourself.


It's Free!

Audio Adrenaline - Get Down

This tab has been rated a 4.00 out of 5 for accuracy. (5 votes)Sorry, but you must be logged in to rate this tab.
Click here to log-in, or you can click here to register.
(Registration is free)

All songs owned by Integrity and Brentwood-Benson are used by permission. If you make copies of any song on this website, be sure to report your usage to CCLI.
Song: Get Down
Artist: Audio Adrenaline
Album: Underdog
Copyright 1999 Up In The Mix Music (BMI)
Tabbed by: Thomas McManus (tom0015@hotmail.com)


Intro [no bass]

Verse one:
  Lavishly our lives are wasted
  Humbleness is left untasted
  You can't live your life to please yourself, yeah
  That's a tip from my mistakes   Exactly what it does't take
G-----------------------------------0---0----0-------0-----0--
D-------------------------------------------------------------
A--2--2-----2--------2---2------------------------------------
E-------------------------------------------------------------

  To win you've got to come in last place
G-------------------------------------------------------------
D-----0-----0-----0---0---------------------------------------
A-----------------------------------2----0--------------------
E-------------------------------------------------------------


Pre-chorus (bass doesn't play on the first prechorus):
  To live your life you've got to lose it
G-------------------------------------------------------------
D-----0---------------------2---------------------------------
A-------------------------------------------------------------
E-------------------------------------------------------------

  And all the losers get a crown
G------0------------------------------------------------------
D---------------------0---------------------------------------
A-----------------------------------/5------------------------
E-------------------------------------------------------------


Chorus:
  I get down, and he lifts me up  I get down, and he lifts me up
G-------------------------------------------------------------
D--------0-0-----------------------------2-2------------------
A-------------------------------------------------------------
E-------------------------------------------------------------

  I get down, and he lifts me up  I get down
G--------0-0--------------------------------------------------
D-----------------------------------------0-------------------
A----------------------------------------------------/5-------
E-------------------------------------------------------------


Second verse has the same pattern as first, then play the
pre-chorus twice, then chorus, then pre-chorus twice, then
chorus repeats several times, with a few quiet times without
bass, then it gets loud again and bass comes back in.
This should be fairly accurate. Enjoy. :)

Comments about this tab

No comments/corrections found. Add your own

Complimentary Christian Ringtones
Dadamobile and CGR have teamed up to bring your favorite Christian artists right to your phone. Sign up today and get 10 complementary ringtones!
Tab Country
Did you know CGR has a sister site w/ country guitar tabs? Well we do! Its called Tab Country. It has a great archive with a lot of country tabs.
Rockin Tabs
Are you looking for a site that has rock guitar tabs? Then Rockintabs.com is the place for you. It is a budding site with many rock guitar tabs. Submit your tab today.
Tab Gallery
Tab Gallery has a compilation of christian, rock, and country tabs all in one place. Come visit us.