Bass Tabs
(THIRD DAY) OR BY ARTIST NAME (JENNIFER KNAPP)
0-9|A|B|C|D|E|F|G|H|I|J|K|L|M|N|O|P|Q|R|S|T|U|V|W|X|Y|Z

Join Us Today!

Don't strum alone...
be a part of the largest online Christian music community. Browse thousands of guitar tabs and chat w/ musicians like yourself.


It's Free!

This tab has been rated a 5.00 out of 5 for accuracy. (2 votes)Sorry, but you must be logged in to rate this tab.
Click here to log-in, or you can click here to register.
(Registration is free)

All songs owned by Integrity and Brentwood-Benson are used by permission. If you make copies of any song on this website, be sure to report your usage to CCLI.
Artist: Living Sacrifice
Song: Bloodwork
Label: Solid State Records
Copyright: 2000 Hope For The Dead Music (ASCAP)
Tabbed By: Alex Lowery (theboxparticle@aol.com)
If Errors Are Found: I'll give you a cookie.


I grouped notes together so you can see the rhythm more clearly.

Guitar riff plays twice

E : 
B : 
F#: 
B : 0

Let ring while guitar riff plays twice more

Then pound away on the rhythm with the guitar and drums

E : ---- ---- ---- ---- ---- ----
B : ---- ---- ---- ---- ---- ----
F#: ---- ---- ---- ---- ---- ----  x4
B : 0000 -0-0 --00 00-- 0000 -0-- 

Pause

E : ---- ---- ---- ---- ---- ----
B : ---- ---- ---- ---- ---- ----
F#: ---- ---- ---- ---- ---- ----  x4
B : 0000 -0-0 --00 00-- 0000 -0--

Rest 3x through guitar riff, then

E : ---- ---- ---- ---- ---- ----
B : ---- ---- ---- ---- ---- ----
F#: ---- ---- ---- ---- ---- ----
B : ---- ---- ---- ---- 0000 -0--


E : ---- ---- ---- ---- ---- ----
B : ---- ---- ---- ---- ---- ----
F#: ---- ---- ---- ---- ---- ----  x4
B : 0000 -0-0 --00 00-- 0000 -0--

E : ---- ---- ---- ---- ---- ---- ---- ----
B : ---- ---- ---- ---- ---- ---- ---- ----
F#: ---- ---- ---- ---- ---- ---- ---- ----
B : ---- ---- --0- ---- --0- ---- ---- 0---

E : ---- ---- ---- ---- ---- ---- ---- ----
B : ---- ---- ---- ---- ---- ---- ---- ----
F#: ---- ---- ---- ---- ---- ---- ---- ----
B : ---- ---- --0- ---- --0- ---- ---- 1---

E : ---- ---- ---- ---- ---- ---- ---- ----
B : ---- ---- ---- ---- ---- ---- ---- ----
F#: ---- ---- ---- ---- ---- ---- ---- ---- x2
B : 0000 -0-0 --1- 0000 --1- 0000 --0- 1---

E : ---- ---- ---- ---- ---- ---- ---- ----
B : ---- ---- ---- ---- ---- ---- ---- ----
F#: ---- ---- ---- ---- ---- ---- ---- ---- x3
B : 0000 -0-0 --1- 0000 --1- 0000 --0- 1---

E : ---- ---- ---- ---- ----
B : ---- ---- ---- ---- ----
F#: ---- ---- ---- ---- ----
B : 0000 -0-0 --1- 0000 --1-

E : ---- ---- ----
B : ---- ---- ----
F#: ---- ---- ---- x8
B : 0000 --0- ----

E : ---- ---- ----
B : ---- ---- ----
F#: ---- ---- ---- x7
B : 0000 --0- ----

E : ---- ---- ----
B : ---- ---- ----
F#: ---- ---- ----
B : 0--0 --0- ----

Pause

E : ---- ---- ----
B : ---- ---- ----
F#: ---- ---- ---- x16
B : 0--0 --0- ----
                  ___
E : ---- ---- ----   \
B : ---- ---- ----    \
F#: ---- ---- ---- x4  \
B : 0--0 --0- ----      \
                        || x4 
E : ---- ---- ----      /
B : ---- ---- ----     /
F#: ---- ---- ---- x4 /
B : 0--0 --0- 1---___/

E : ---- ---- ----
B : ---- ---- ----
F#: ---- ---- ---- x8
B : 0--0 --0- 1---

E : ---- ---- ----
B : ---- ---- ----
F#: ---- ---- ---- x16
B : 0--0 --0- 1-4-

E : ---- ---- ----
B : ---- ---- ----
F#: ---- ---- ---- x16
B : 0--0 --0- ----

Comments about this tab

panhead4383 - 2004-01-19

I think the run should be in octaves, not single notes


Hooah - 2004-07-07

sorry, but even though you've got the right idea, either it somehow didn't get tabbed correctly, or you were a little off :\


Add a comment/correction

Complimentary Christian Ringtones
Dadamobile and CGR have teamed up to bring your favorite Christian artists right to your phone. Sign up today and get 10 complementary ringtones!
Tab Country
Did you know CGR has a sister site w/ country guitar tabs? Well we do! Its called Tab Country. It has a great archive with a lot of country tabs.
Rockin Tabs
Are you looking for a site that has rock guitar tabs? Then Rockintabs.com is the place for you. It is a budding site with many rock guitar tabs. Submit your tab today.
Tab Gallery
Tab Gallery has a compilation of christian, rock, and country tabs all in one place. Come visit us.