Bass Tabs
(THIRD DAY) OR BY ARTIST NAME (JENNIFER KNAPP)
0-9|A|B|C|D|E|F|G|H|I|J|K|L|M|N|O|P|Q|R|S|T|U|V|W|X|Y|Z

Join Us Today!

Don't strum alone...
be a part of the largest online Christian music community. Browse thousands of guitar tabs and chat w/ musicians like yourself.


It's Free!

Project 86 - Pipedream

This tab has been rated a 5.00 out of 5 for accuracy. (2 votes)Sorry, but you must be logged in to rate this tab.
Click here to log-in, or you can click here to register.
(Registration is free)

All songs owned by Integrity and Brentwood-Benson are used by permission. If you make copies of any song on this website, be sure to report your usage to CCLI.
Project 86
Pipedream
BEC Records
Tabbed by David McMichael (Metalhead9125yahoo.com)

Drop D Tuning (DADG)

I made it simple because the other Pipedream bass tab is hard to follow
and you have to figure out most of the stuff, here ya go, and just follow
the tab all the way through.

The guitar plays the opening riffs 4x, 
then play 8x,

|---------------------------|
|---------------------------|
|---------------------------|
|-0-2-0-2-0-2-0-2-3-3-3-3-3-|

then play 2x,

|------------------------------------------|
|------------------------------------------|
|------------------------------------------|
|-0-2-0-2-0-2---0-2-0-2-0-2-0-2-3-3-3-3-3--|

then play 8x,

|---------------------------|
|---------------------------|
|---------------------------|
|-0-2-0-2-0-2-0-2-3-3-3-3-3-|

then play 4x,

|-----------|
|-----------|
|-----------|
|-3-3-2-2-2-|

then play 2x,

|-------------------------------------|
|-------------------------------------|
|-------------------------------------|
|-11-11-11-11-11-11-12-12-12-12-12-12-|

then play 4x,

|--------------------|
|--------------------|
|--------------------|
|-0------6-3-5-0-3-5-|

let guitar play, then 8x,

|---------------------------|
|---------------------------|
|---------------------------|
|-0-2-0-2-0-2-0-2-3-3-3-3-3-|

then play 4x,

|-----------|
|-----------|
|-----------|
|-3-3-2-2-2-|

then play 2x,

|-------------------------------------|
|-------------------------------------|
|-------------------------------------|
|-11-11-11-11-11-11-12-12-12-12-12-12-|

then play 4x,

|-------------------|
|-------------------|
|-------------------|
|-0-----6-3-5-0-3-5-|

then play 8x,

|----------------|---|
|----------------|---|
|----------5-----|---|
|-xxxxxx-6---6-5-|-0-|<-- after 8x

then play this until the end of the song.

|----------------------|
|----------------------|
|-----5-750------------|
|--66-------55555555---|

Comments about this tab

No comments/corrections found. Add your own

Complimentary Christian Ringtones
Dadamobile and CGR have teamed up to bring your favorite Christian artists right to your phone. Sign up today and get 10 complementary ringtones!
Tab Country
Did you know CGR has a sister site w/ country guitar tabs? Well we do! Its called Tab Country. It has a great archive with a lot of country tabs.
Rockin Tabs
Are you looking for a site that has rock guitar tabs? Then Rockintabs.com is the place for you. It is a budding site with many rock guitar tabs. Submit your tab today.
Tab Gallery
Tab Gallery has a compilation of christian, rock, and country tabs all in one place. Come visit us.