Bass Tabs
(THIRD DAY) OR BY ARTIST NAME (JENNIFER KNAPP)
0-9|A|B|C|D|E|F|G|H|I|J|K|L|M|N|O|P|Q|R|S|T|U|V|W|X|Y|Z

Join Us Today!

Don't strum alone...
be a part of the largest online Christian music community. Browse thousands of guitar tabs and chat w/ musicians like yourself.


It's Free!

Five Iron Frenzy - Spartan

This tab has been rated a 4.00 out of 5 for accuracy. (1 vote)Sorry, but you must be logged in to rate this tab.
Click here to log-in, or you can click here to register.
(Registration is free)

All songs owned by Integrity and Brentwood-Benson are used by permission. If you make copies of any song on this website, be sure to report your usage to CCLI.
SPARTAN (Bassline)
Five Iron Frenzy
From the 2001 Album FIVE IRON FRENZY II: ELECTRIC BOOGALOO

Transcribed by Andrew Schell   sonnyschell@hotmail.com
NOTE: Check out the legend at the bottom of the tab if you don't
understand my notation (it's music notation stuff and saves
lots of space).

 Intro (tacet)    

 Verse 1
||------------------|-----------------|------------------|
||o-----------------|-----------------|------------------|
||o-2-2-2-2-2-2-2-2-|-4-4-4-4-4-4-4-4-|-5-5-5-5-5-5-5-5--|
||------------------|-----------------|------------------|

|-----------------|-----------------|-----------------|
|-----------------|-----------------|-----------------|
|-5-5-5-5-5-5-5-5-|-2-2-2-2-2-2-2-2-|-----------------|
|-----------------|-----------------|-2-2-2-2-2-2-2-2-|

                   1.                  2.
|-----------------|------------------||---------------|
|-----------------|-----------------o||---------------|
|-----------------|-----------------o||-------4--5----|
|-3-3-3-3-3-3-3-3-|-5-5-5-5-5-5-5-5--||-5-5-5-------3-|

 Pre-Chorus
  *SEGNO
|-------------|-------------|-----------------|
|-------------|-------------|-----------------|
|-------------|-------------|-5-5-5-5-5-5-5---|
|-3---7-7---5-|-5---5--3--5-|---------------0-|

|-----------------|-------------|-------------|
|-----------------|-------------|-------------|
|-----------------|-------------|-----2--4----|
|-2-2-2-2-2-5-5-3-|-3---7-7---2-|-2---------5-|

|-----------------|----------------|
|-----------------|----------------|
|-----------------|----------------|
|-5-5-5-5-5-5-5-5-|--3-3-3-3-2-2-3-|

 Chorus
|--------------|--------------|--------------|
|--------------|--------------|--------------|
|----------5-5-|--------------|----------7-7-|
|-3-3-3--------|-5-5-5----2-2-|-3-3-3--------|

|--------------|--------------|--------------|
|--------------|--------------|--------------|
|----------5-5-|--------------|--------------|
|-7-7-7--------|-3-3-3----5-5-|-7-7-7----2-2-|

                *To Coda
|------------------|
|------------------|
|------------------|
|-3-3-3-3-5-5-5-5--|

|----------|--------|--------|--------|
|----------|--------|--------|--------|
|----------|--------|--------|--------|
|-3--------|-(3)----|-(3)----|-(3)----|

   Verse 2
||------------------|-----------------|-----------------|
||o-----------------|-----------------|-----------------|
||o-2-2-2-2-2-2-2-2-|-4-4-4-4-4-4-4-4-|-5-5-5-5-5-5-5-5-|
||------------------|-----------------|-----------------|

|-----------------|-----------------|-----------------|
|-----------------|-----------------|-----------------|
|-5-5-5-5-5-5-5-5-|-2-2-2-2-2-2-2-2-|-----------------|
|-----------------|-----------------|-2-2-2-2-2-2-2-2-|

                   1.                  2.           *D.S. al Coda
|-----------------|------------------||---------------|
|-----------------|-----------------o||---------------|
|-----------------|-----------------o||-------4--5----|
|-3-3-3-3-3-3-3-3-|-5-5-5-5-5-5-5-5--||-5-5-5-------3-|

   Bridge
    CODA                                1.
||------------------|-----------------|-----------------|
||o-----------------|-----------------|-----------------|
||o-5-5-5-5-5-5-5-5-|-2-2-2-2-2-2-2-2-|-----------------|
||------------------|-----------------|-2-2-2-2-2-2-2-2-|

                     2.
|------------------||-----------------|-----------------|
|-----------------o||-----------------|-----------------|
|-----------------o||-----------------|-----------------|
|-5-5-5-5-5-5-5-5--||-3-3-3-3-2-2-2-2-|-0-0-0-0-0-0-0-0-|

|-----------------|-----------------|-----------------|
|-----------------|-----------------|-----------------|
|-5-5-5-5-5-5-5-5-|-----------------|-----------------|
|-----------------|-5-5-5-5-5-5-5-5-|-0-0-0-0-0-0-0-0-|

|-----------------|-----------------|-----------------|
|-----------------|-----------------|-----------------|
|-----------------|-5-5-5-5-5-5-5-5-|-----------------|
|-3-3-3-3-3-3-3-3-|-----------------|-5-5-5-5-5-5-5-5-|

|-----------------|-----------------|
|-----------------|-----------------|
|-----------------|-----------------|
|-3-3-3-3-3-3-3-3-|-5-5-5-5-5-2-2-2-|

 Chorus
|--------------|--------------|--------------|
|--------------|--------------|--------------|
|----------5-5-|--------------|----------7-7-|
|-3-3-3--------|-5-5-5----2-2-|-3-3-3--------|

|--------------|--------------|--------------|
|--------------|--------------|--------------|
|----------5-5-|--------------|--------------|
|-7-7-7--------|-3-3-3----5-5-|-7-7-7----2-2-|

                   Outro
|-----------------|----------|--------|
|-----------------|----------|--------|
|-----------------|----------|--------|
|-3-3-3-3-5-5-5-5-|-0--------|-(0)----|

                                               3x
||-----------|------------|----------|---------||
||o----------|------------|----------|--------o||
||o----------|------------|----------|--------o||
||--3--------|-(3)--------|-0--------|-(0)-----||

|----------|--------*|
|----------|--------*|
|----------|--------*|
|-3--------|-(3)----*|

TAB LEGEND:
-----------

 ()   the note is held but not played

 ||        ||   The bars with "o"s mean to repeat 
 ||o      o||   the measures between.  A "1." means
 ||o      o||   to play until you get to the repeat
 ||        ||   sign, go back to the beginning of
                the section repeated and play until the
                "1." and then skip to the "2."

 3x             This means to play the repeated measures
                3 times

 D.S. al Coda   This means to go back to the SEGNO
                and play until it says "To Coda", then
                skip to the CODA



***************************************************
* Generated using Power Tab Editor by Brad Larsen *
*        http://powertab.guitarnetwork.org        *
***************************************************

Comments about this tab

No comments/corrections found. Add your own

Complimentary Christian Ringtones
Dadamobile and CGR have teamed up to bring your favorite Christian artists right to your phone. Sign up today and get 10 complementary ringtones!
Tab Country
Did you know CGR has a sister site w/ country guitar tabs? Well we do! Its called Tab Country. It has a great archive with a lot of country tabs.
Rockin Tabs
Are you looking for a site that has rock guitar tabs? Then Rockintabs.com is the place for you. It is a budding site with many rock guitar tabs. Submit your tab today.
Tab Gallery
Tab Gallery has a compilation of christian, rock, and country tabs all in one place. Come visit us.