Bass Tabs
(THIRD DAY) OR BY ARTIST NAME (JENNIFER KNAPP)
0-9|A|B|C|D|E|F|G|H|I|J|K|L|M|N|O|P|Q|R|S|T|U|V|W|X|Y|Z

Join Us Today!

Don't strum alone...
be a part of the largest online Christian music community. Browse thousands of guitar tabs and chat w/ musicians like yourself.


It's Free!

Relient K - Trademark

This tab has been rated a 4.00 out of 5 for accuracy. (3 votes)Sorry, but you must be logged in to rate this tab.
Click here to log-in, or you can click here to register.
(Registration is free)

All songs owned by Integrity and Brentwood-Benson are used by permission. If you make copies of any song on this website, be sure to report your usage to CCLI.
Artist: Relient K
Song: Trademark
Album: Employee of the Month
Tabbed by: Matt

Intro
G-------------------------------------------------------------------------------
D-------------------------------------------------------------------------------
A-------------------------------------------------------------------------------
E---3-5-5------5-5---------------1-1------1-1-----------------------------------

Pre-verse
G----------------------------
D----------------------------
A----------------------------
E---5------------------------

Pre-verse 2
G-------------------------------------------------------------------------------
D-------------------------------------------------------------------------------
A-------------------------------------------------------------------------------
E---5-5-5-5-5-5-5-5-1-1-1-1-1-1-1-1-0-0-0-0-0-0-0-0-----------------------------

Verse
G-------------------------------------------------------------------------------
D-------------------------------------------------------------------------------
A------------------7-7-7-7-7-7-7-7-9-9-9-9-9-9-9-9-5-5-5-5-5-5-5-5--------------
E--5-5-5-5-5-5-5-5--------------------------------------------------------------

Pre-pre-chorus "It seems....."
G-------------------------------------------------------------------------------
D-------------------------------------------------------------------------------
A-----------7-7-7-7-5-5-5-5-7-7-7-7---------------------------------------------
E---5-5-5-5---------------------------------------------------------------------

Pre-chorus "I just fall....."
G-------------------------------
D-------------------------------
A-------------------------------
E---5-5-5-5-1-1-1-1-0-0-0-0-----

Chorus
G--------------------------------------
D--------------------------------------
A------------------5-5-5-5-5-5-5-5-----
E--5-5-5-5-5-5-5-5---------------------

Post-chorus
G-------------------------------------------------------------------------------
D-------------------------------------------------------------------------------
A----------------------------------5-5-5-5--------------------------------------
E--5-5-5-5-3-3-3-3-2-2-2-2-1-1-1-1----------------------------------------------

The Bass during the guitar solo:
G-------------------------------------
D-------------------------------------
A-------------------------------------
E--5-5-5-5-5-5-5-5-1-1-1-1-0-0-0-0----

Order:
Intro X4
Pre-verse X1
Pre-verse2 X1
Verse X2
Pre-pre-chorus X2
Pre-chorus X1
Chorus X2
Post-chorus X1
Intro X3
Pre-verse2 X2
Verse X2
Pre-pre-chorus X2
Pre-chorus X1
Chorus X2
Post-chorus X1
Bass during guitar solo X4
Chorus X4
Post-chorus X1
Bass during guitar solo X4
End on:
G-------
D-------
A-------
E---5---

This should be pretty close. I am not sure about the accuracy in some
parts, but it should give you the main idea. Listen to the CD to get the
rhythm.

Comments about this tab

No comments/corrections found. Add your own

Complimentary Christian Ringtones
Dadamobile and CGR have teamed up to bring your favorite Christian artists right to your phone. Sign up today and get 10 complementary ringtones!
Tab Country
Did you know CGR has a sister site w/ country guitar tabs? Well we do! Its called Tab Country. It has a great archive with a lot of country tabs.
Rockin Tabs
Are you looking for a site that has rock guitar tabs? Then Rockintabs.com is the place for you. It is a budding site with many rock guitar tabs. Submit your tab today.
Tab Gallery
Tab Gallery has a compilation of christian, rock, and country tabs all in one place. Come visit us.