Bass Tabs
(THIRD DAY) OR BY ARTIST NAME (JENNIFER KNAPP)
0-9|A|B|C|D|E|F|G|H|I|J|K|L|M|N|O|P|Q|R|S|T|U|V|W|X|Y|Z

Join Us Today!

Don't strum alone...
be a part of the largest online Christian music community. Browse thousands of guitar tabs and chat w/ musicians like yourself.


It's Free!

This tab has not yet been rated for accuracy.Sorry, but you must be logged in to rate this tab.
Click here to log-in, or you can click here to register.
(Registration is free)

All songs owned by Integrity and Brentwood-Benson are used by permission. If you make copies of any song on this website, be sure to report your usage to CCLI.
Artist: Matt Redman
Songs: Undignified
Transcribed by: David Roell (dk-r@gmx.net)

G|--------|--------|--------|--------|
D|--------|--------|--------|--------|
A|7-------|------2-|7*------|------2-|
E|----5---|5-4-2---|(0)-5---|5-4-2---|
repeat...
*= you may play E|0| or A|7|

E.g.:
G|--------|--------|--------|--------|--------|--------|--------|--------|
D|--------|--------|--------|--------|--------|--------|--------|--------|
A|7-------|------2-|--------|------2/|7-------|------2-|7*------|------2-|
E|----5---|5-4-2---|0---5---|5-4-2---|----5---|5-4-2---|0*--5---|5-4-2---|
/=slide up

you may also play (pretty simple, pretty boring :)
G|--------|--------|
D|--------|--------|
A|7-------|--7-----|
E|----5---|5---7---|
  E   A    A E H
during the whole song 
/except during this "nanananana hey":
E                   A (you may slide from E|5| to E|17|)
A                   H (you may slide from E|5| to E|17|) x2

ok this was my first TAB, I hope to finish my second tab "all day" by Youth
alive Nsw soon, so watch out :)

Comments about this tab

No comments/corrections found. Add your own

Complimentary Christian Ringtones
Dadamobile and CGR have teamed up to bring your favorite Christian artists right to your phone. Sign up today and get 10 complementary ringtones!
Tab Country
Did you know CGR has a sister site w/ country guitar tabs? Well we do! Its called Tab Country. It has a great archive with a lot of country tabs.
Rockin Tabs
Are you looking for a site that has rock guitar tabs? Then Rockintabs.com is the place for you. It is a budding site with many rock guitar tabs. Submit your tab today.
Tab Gallery
Tab Gallery has a compilation of christian, rock, and country tabs all in one place. Come visit us.