Bass Tabs
(THIRD DAY) OR BY ARTIST NAME (JENNIFER KNAPP)
0-9|A|B|C|D|E|F|G|H|I|J|K|L|M|N|O|P|Q|R|S|T|U|V|W|X|Y|Z

Join Us Today!

Don't strum alone...
be a part of the largest online Christian music community. Browse thousands of guitar tabs and chat w/ musicians like yourself.


It's Free!

LaRue - As She Cries

This tab has not yet been rated for accuracy.Sorry, but you must be logged in to rate this tab.
Click here to log-in, or you can click here to register.
(Registration is free)

All songs owned by Integrity and Brentwood-Benson are used by permission. If you make copies of any song on this website, be sure to report your usage to CCLI.
As She Cries
LaRue
From their self-titled album
1999 New Spring Publishing, Inc
Tabbed by Ill Poet   paique11@yahoo.com

Regular tuning

Intro/verse

E--3---3--3--------0---0-0

Chorus
A--0---0-0---0-0-0------3---3-3---3-3-3---
E-----------------------------------------

A--5---5-5---5-5-5------3---3-3---3-3-3---
E-----------------------------------------

A--0---0-0---0-0-0------3---3-3---3-3-3----
E------------------------------------------

A--5---5-5---5-5-5------3---3-3---0--------
E------------------------------------------

Before 2nd verse

E--3---3-3------0---0-0------3---3-3------0-

Verse

Bridge

E--3---3-3----3---3-3----0---0-0----0---0-0---

Verse
Chorus
Outro same as bridge  2x's

Peace out and God bless!

Comments about this tab

No comments/corrections found. Add your own

Complimentary Christian Ringtones
Dadamobile and CGR have teamed up to bring your favorite Christian artists right to your phone. Sign up today and get 10 complementary ringtones!
Tab Country
Did you know CGR has a sister site w/ country guitar tabs? Well we do! Its called Tab Country. It has a great archive with a lot of country tabs.
Rockin Tabs
Are you looking for a site that has rock guitar tabs? Then Rockintabs.com is the place for you. It is a budding site with many rock guitar tabs. Submit your tab today.
Tab Gallery
Tab Gallery has a compilation of christian, rock, and country tabs all in one place. Come visit us.