Bass Tabs
(THIRD DAY) OR BY ARTIST NAME (JENNIFER KNAPP)
0-9|A|B|C|D|E|F|G|H|I|J|K|L|M|N|O|P|Q|R|S|T|U|V|W|X|Y|Z

Join Us Today!

Don't strum alone...
be a part of the largest online Christian music community. Browse thousands of guitar tabs and chat w/ musicians like yourself.


It's Free!

Relient K - Hello McFly

This tab has been rated a 3.50 out of 5 for accuracy. (4 votes)Sorry, but you must be logged in to rate this tab.
Click here to log-in, or you can click here to register.
(Registration is free)

All songs owned by Integrity and Brentwood-Benson are used by permission. If you make copies of any song on this website, be sure to report your usage to CCLI.
Hello McFly
Relient K

The reason im submiting this song is because i went to see relient k play
last night and noticed that their basses was playing a totally different
part for example the guy who tabbed it had his verse E-7777777  A-7777777
9999999 77777777 and the way relient k played the bassist nam slipped my
mind was A-3333333 E- 33333333 1111111 and so on I know that its right
because i saw him play and i wrote it down!

Intro,and post Chorus

G--------------------------------------
D--------------------------------------
A--------2--679-----------2--976-------
E-00--22----------00---22--------------


Verse

G--------------------------------------
D--------------------------------------     play this until song goes to chorus
A-3333333--------------------3333333---     
E---------3333333--1111111-------------

Chorus A

G--------------------------------------
D--------------------------------------
A-3--------------3---------------------
E-----3-----1--------3-----------------   Feel free to do rhythm variations

Chorus B

G--------------------------------------
D--------------------------------------
A-333------------333--------------3----
E-----333---111-------333---111--------

Thats it Chorus A's rhythm isnt right the notes are, feel free to put
fillers in

Zach S. (e-mail me with comments at problemchild06@aol.com

Comments about this tab

No comments/corrections found. Add your own

Complimentary Christian Ringtones
Dadamobile and CGR have teamed up to bring your favorite Christian artists right to your phone. Sign up today and get 10 complementary ringtones!
Tab Country
Did you know CGR has a sister site w/ country guitar tabs? Well we do! Its called Tab Country. It has a great archive with a lot of country tabs.
Rockin Tabs
Are you looking for a site that has rock guitar tabs? Then Rockintabs.com is the place for you. It is a budding site with many rock guitar tabs. Submit your tab today.
Tab Gallery
Tab Gallery has a compilation of christian, rock, and country tabs all in one place. Come visit us.