Bass Tabs
(THIRD DAY) OR BY ARTIST NAME (JENNIFER KNAPP)
0-9|A|B|C|D|E|F|G|H|I|J|K|L|M|N|O|P|Q|R|S|T|U|V|W|X|Y|Z

Join Us Today!

Don't strum alone...
be a part of the largest online Christian music community. Browse thousands of guitar tabs and chat w/ musicians like yourself.


It's Free!

DC Talk - What Have We Become

This tab has been rated a 4.00 out of 5 for accuracy. (2 votes)Sorry, but you must be logged in to rate this tab.
Click here to log-in, or you can click here to register.
(Registration is free)

All songs owned by Integrity and Brentwood-Benson are used by permission. If you make copies of any song on this website, be sure to report your usage to CCLI.
Song titel: what have we become
Artist: dctalk
Album: Jesus Freak
Tabbed by: Simon Sigfridsson (swimp@hehe.com)

INTRO:
|-------|-------|---------|-------|-------|
|-------|-------|---------|-------|-------|
|-------|-------|---------|-------|-------|
|-1-----|-------|---------|-------|-------|
 
|------|-------|---------|-------|-------|-------|
|------|-------|---------|-------|-------|-------|
|------|-3-----|-6---6^8-|-1-----|-4-----|-3-----|
|-1----|-------|---------|-------|-------|-------|

|-------|-------|
|-------|-------|
|-------|-------|
|-1-----|-------|

Vers
|-------|-------|-------|-------|
|-------|-------|-------|-------| 2x
|-------|-4-----|-1--4--|-------|
|-1-----|-------|-------|-1-----|

Pre-Chorus
|---------------|--------------|------------|
|---------------|--------------|------------|
|-4-4-4-4-4---4-|-6-6-6-6-6----|----6--8----|
|---------------|--------------|-4----------|

|---------------|--------------|------------|---|
|---------------|--------------|------------|---|
|-4-4-4-4-4---4-|-6-6-6-6-6----|----6--4----|---|
|---------------|--------------|-4----------|---|

Chorus
|-----------8----8^10--|
|------8^10---10-------| 4x
|-8-8------------------|
|----------------------|

|--------------13----13^15--|
|--------13^15----15--------| 1x
|-13-13---------------------|
|---------------------------|

|---------------|---------------|---------------|
|---------------|---------------|---------------|
|---------------|---------------|---------------|
|-8-8--x8-x8--8-|-9-9--x9-x9--9-|-8-8--x8-x8--8-|

|---------|
|---------|
|---------|
|-1-------|

Interlude
|-----------8----8^10--|
|----8--10----10-------| 4x
|-8--------------------|
|----------------------|

|Bb   |C    |F    |     |


Vers 2
|-------|-------|-------|-------|
|-------|-------|-------|-------| 2x
|-------|-4-----|-1--4--|-------|
|-1-----|-------|-------|-1-----|

|-------13-----|-----------|-------|------|
|----------15--|-11----11--|-------|------|
|----15--------|----11-----|-1--4--|------|
|-13-----------|-----------|-------|-1----|

Pre-Chorus 

Chorus

Interlude
|-----------8----8^10--|
|----8--10----10-------| 4x
|-8--------------------|
|----------------------|

|Bb   |C    |Db   |Eb  E|

Bridge
|-------------|
|---------3---| 8x
|-------------|
|-1-1-1-1-----|

|---------3---|  or |-------------|
|-------------| 7x  |---------8---| 7x
|-1-1-1-1-----|     |-------------|
|-------------|     |-6-6-6-6-----|

|------------------|    |------------------|
|------------------| or |------------------|
|-1-1-1-1--1-1-1-1-|    |------------------|
|------------------|    |-6-6-6-6--6-6-6-6-|


|---------|-------10--|-------------|-----------|
|-11--13--|----10-----|-11-15-13----|----10-11--|
|---------|-11--------|----------10-|-11--------|
|---------|-----------|-------------|-----------|

|-------|
|-------|
|-------|
|-9-----|

Chorus
|-----------8----8^10--|
|------8^10---10-------| 4x
|-8-8------------------|
|----------------------|

|--------------13----13^15--|
|--------13^15----15--------| 1x
|-13-13---------------------|
|---------------------------|

|---------------|---------------|
|---------------|---------------|
|---------------|---------------|
|-8-8--x8-x8--8-|-9-9--x9-x9--9-|

|--------------------------------|
|--------------------------------|
|-15-15-13-13-11-11-10--10-10-10-|
|--------------------------------|

Interlude
|-----------8----8^10--|
|----8--10----10-------| 4x
|-8--------------------|
|----------------------|

|Bb   |C    |F    |

|  |  |  |

|Bb   |C    |F    |

Outro
|-----------8----8^10--|
|----8--10----10-------| 4x
|-8--------------------|
|----------------------|

|Bb   |C    |F    |

I did my best!
explenations:
 
 ^ = legato or hammer
 x = mute 

lyrics:

Verse 1
A preacher shuns his brother 
Cause his bride's a different color
And this is not acceptable 
His Papa thaught him so
It was love that he'd been preaching
But this was overreaching
The boundaries stretched further
Than his heart would choose to go

Pre-Chorus
Like an angel with no wings
Like a kingdom with no king

Chorus

What have we become 
A self indulgent people
What have we become 
Tell me where are the righteous ones
What have we become 
In a world degenarating
What have we become

Interlude  (ah oa oaoh, ah oa oao)
Speak your mind, look out for yourself
The answer to it all is a life of wealth
Grab all you can cause you live just one
You got the right to do whatever you want
Don't worry about others 
Or where you came from
It ain't what you were
It's what you have become

Verse 2
Mom and Dad are fighting 
As Rosie lies there crying  
For once again she's overheard 
Regrets of their mistake
With Christmas bells-a-ringing, 
Little Rosie'd leave them grieving
The gift she'd give her family 
Would be the pills she'd take

Pre-Chorus
An inconvenient child
She wasn't worth their while

Chorus

Interlude  (ah oa oaoh, ah oa oao)
Speak your mind, look out for yourself
The answer to it all is a life of wealth
Grab all you can cause you live just one
You got the right to do whatever you want
Don't worry about others
Or where you came from
It ain't what you were
It's what you have become
Don't worry about others
Or where you came from			    
It ain't what you were
It's what you have become

Bridge
What about love?   (what about love, what about love?)
What about God?   (what about God,what about God?)
What about holiness?  (what about,what about,what about,what about?)
What about mercy, compassion and selflessness?

You know true
His is there for me and you
Doesen't matter what you do

CHORUS

Interlude (ah oa oaoh, ah oa oao)
What have we become?
Have we come undone? (Oo na na na na...)
What have we become?
Have we come undone?
What have we become?

Speak your mind, look out for yourself
The answer to it all is a life of wealth
Grab all you can cause you live just one
You got the right to do whatever you want
Don't worry about others 
Or where you came from
It ain't what you were
It's what you have become

Outro
Selfish goal
This selfish goal
Selfish people
When you gonna learn?
Ev'ry one of us
Gotta learn to trust
What have we become?

Comments about this tab

No comments/corrections found. Add your own

Complimentary Christian Ringtones
Dadamobile and CGR have teamed up to bring your favorite Christian artists right to your phone. Sign up today and get 10 complementary ringtones!
Tab Country
Did you know CGR has a sister site w/ country guitar tabs? Well we do! Its called Tab Country. It has a great archive with a lot of country tabs.
Rockin Tabs
Are you looking for a site that has rock guitar tabs? Then Rockintabs.com is the place for you. It is a budding site with many rock guitar tabs. Submit your tab today.
Tab Gallery
Tab Gallery has a compilation of christian, rock, and country tabs all in one place. Come visit us.