Bass Tabs
(THIRD DAY) OR BY ARTIST NAME (JENNIFER KNAPP)
0-9|A|B|C|D|E|F|G|H|I|J|K|L|M|N|O|P|Q|R|S|T|U|V|W|X|Y|Z

Join Us Today!

Don't strum alone...
be a part of the largest online Christian music community. Browse thousands of guitar tabs and chat w/ musicians like yourself.


It's Free!

Blindside - Pitiful

This tab has been rated a 1.67 out of 5 for accuracy. (3 votes)Sorry, but you must be logged in to rate this tab.
Click here to log-in, or you can click here to register.
(Registration is free)

All songs owned by Integrity and Brentwood-Benson are used by permission. If you make copies of any song on this website, be sure to report your usage to CCLI.
Artist: Blindside
Title: Pitiful
CD: Silence
Tabbed By: Bryan Matthews (projectBdaddy8)
E-mail: projectbryan8@hotmail.com

Drop-D Tuning (G-D-A-D)

Intro
G|---------------------------------
D|---------------------------------
A|---------------------------------		x 2
D|--1-1-0-5-5-0-1-1-0-5-6-5-0------

Verse
G|---------------------
D|---------------------                repeat as necessary
A|---------42---21-----                let the notes ring!
D|--1------------------ (on the last one go back up to 4 instead of down to 1)

G|-------------------------------
D|-------------------------------
A|---------4------2-------1------    pay attention for when the notes change
D|--1----------------------------    and let the notes ring!

Bridge
G|-----------------------------------------
D|-----------------------------------------
A|-----------------------------------------
D|-11111---33333---44444---33333-----------

G|--------------------------------------------------------
D|--------------------------------------------------------
A|---------------2------1-------------------2-----4-------
D|--1-----3-------------------1------3--------------------

The best part about this song is the intro, Enjoy!

Comments about this tab

No comments/corrections found. Add your own

Complimentary Christian Ringtones
Dadamobile and CGR have teamed up to bring your favorite Christian artists right to your phone. Sign up today and get 10 complementary ringtones!
Tab Country
Did you know CGR has a sister site w/ country guitar tabs? Well we do! Its called Tab Country. It has a great archive with a lot of country tabs.
Rockin Tabs
Are you looking for a site that has rock guitar tabs? Then Rockintabs.com is the place for you. It is a budding site with many rock guitar tabs. Submit your tab today.
Tab Gallery
Tab Gallery has a compilation of christian, rock, and country tabs all in one place. Come visit us.