Bass Tabs
(THIRD DAY) OR BY ARTIST NAME (JENNIFER KNAPP)
0-9|A|B|C|D|E|F|G|H|I|J|K|L|M|N|O|P|Q|R|S|T|U|V|W|X|Y|Z

Join Us Today!

Don't strum alone...
be a part of the largest online Christian music community. Browse thousands of guitar tabs and chat w/ musicians like yourself.


It's Free!

This tab has been rated a 5.00 out of 5 for accuracy. (1 vote)Sorry, but you must be logged in to rate this tab.
Click here to log-in, or you can click here to register.
(Registration is free)

All songs owned by Integrity and Brentwood-Benson are used by permission. If you make copies of any song on this website, be sure to report your usage to CCLI.
Artist: The W’s
Song Title: Frank
Album: Fourth from the Last
Tab corrected by: J-dawg (altarnarock@yahoo.com)

The other bass tab for this song was WAY off. This is my first tab, but
this should be a more accurate version.

Intro (x5)
G|------2---------|------2-------|------2-------|------2—3-2---|
D|----3---3—2—0---|----3---3-2-0-|----3---3-2-0-|----3-------3-|  
A|--2-------------|--2-----------|--2-----------|--2-----------|
E|----------------|--------------|--------------|--------------|

Drum Solo, then…

G|------------------|
D|---0-2-3-4-3-2-0--|  x10 (some trills and funky stuff in between)
A|-2----------------|
E|------------------|

Verse (x4)
G|------------------|-----------------<2-3>-|
D|---0-2-3-4-3-2-0--|---0-2-3-4-3-2-0-------| 
A|-2----------------|-2---------------------|
E|------------------|-----------------------|

Short Instrumental Break (scaling down)
G|-----4-2-0-----------------------------|
D|--2---------4—2-0----------------------| 
A|-------------------4-2-0---------------|
E|---------------------------3-2-0-1—2---|

Chorus (x2)
G|---------------------------|------------------------|----------2----|
D|-4-4-4-4-4-4-3-3-<2><2><2>—|-2-2-2—---0-2-3-4-3-2-0-|--0-2-3-4—-4-3-|
A|---------------------------|--------2---------------|-2-------------|
E|---------------------------|------------------------|---------------|

Verse 2, Break, Chorus

Trumpet Solo (too lazy to tab bass line…just have fun!)

Verse 3, Break, Chorus

Slow verse, break, chorus

End on 
G|------|
D|------|
A|-<2>--|
E|------|

Comments about this tab

calazoid - 2005-05-06

donke shone. i was looking for the solo!


freesoldier - 2005-12-14

it'd be sweet if you could show the fingering for C9.


wakeslide77 - 2006-01-10

the fingering for C9 is
e-0
B-3
G-0
D-2
A-3
E-0


Tyran001 - 2006-03-02

man, i been having some trouble with the solo. i duno what it is but i cant seem to get it down. i have to play this song next week for youth group, can anybody help?


Add a comment/correction

Complimentary Christian Ringtones
Dadamobile and CGR have teamed up to bring your favorite Christian artists right to your phone. Sign up today and get 10 complementary ringtones!
Tab Country
Did you know CGR has a sister site w/ country guitar tabs? Well we do! Its called Tab Country. It has a great archive with a lot of country tabs.
Rockin Tabs
Are you looking for a site that has rock guitar tabs? Then Rockintabs.com is the place for you. It is a budding site with many rock guitar tabs. Submit your tab today.
Tab Gallery
Tab Gallery has a compilation of christian, rock, and country tabs all in one place. Come visit us.