Bass Tabs
(THIRD DAY) OR BY ARTIST NAME (JENNIFER KNAPP)
0-9|A|B|C|D|E|F|G|H|I|J|K|L|M|N|O|P|Q|R|S|T|U|V|W|X|Y|Z

Join Us Today!

Don't strum alone...
be a part of the largest online Christian music community. Browse thousands of guitar tabs and chat w/ musicians like yourself.


It's Free!

DC Talk - It's Killing Me

This tab has not yet been rated for accuracy.Sorry, but you must be logged in to rate this tab.
Click here to log-in, or you can click here to register.
(Registration is free)

All songs owned by Integrity and Brentwood-Benson are used by permission. If you make copies of any song on this website, be sure to report your usage to CCLI.
It's Killing Me
Bass Tab
dcTalk
CD: Supernatural
c1998 Achtober Songs
Tab: Steve Cruickshank
postlambjam@hotmail.com

I suppose I should mention I didnt use a bass to tab this, 
nor have I ever owned one or ever even played one. I did it 
on my guitar trying to remember the bass is an octave lower 
than guitar, so I have no idea if it will work or not


Verse 1:
G---7-----6-----7-----6---6-7-----6-----10---------
D------------------------6-------------------------
A--------------------------------------------------
E--------------------------------------------------
Hello goodbye...

G---7-----6-----7-----6---6-7-----6\---------------
D------------------------6-----------6--3-----3----
A-----------------------------------------4-4------
E--------------------------------------------------
Its tricky sometimes...


Prechorus:
G--------------------------------------------------
D--------------------------------------------------
A--------/6------------/6------------/6------------
E---1-----------\1------------\1-------------------
Another day and Im on my feet...

G--------------------------------------------------
D---6-6--6-8----6-6--6-8---------------------------
A--------------------------------------------------
E--------------------------------------------------
Youre the reason I'm afraid...



Chorus:
G--------------------------------------------------
D--------------------------------------------------
A-------/6------------------/6--------------------- (x2)
E---1-------4---6-6-6---1-------4---6-6-6----------
But I want you to know...

G--------------------------------------------------
D-----------------9-8--------------------------------
A---4---------4/9------------------------------------
E--------------------------------------------------
You gotta do what you want...




Verse 2: (an octave lower than verse 1)
G--------------------------------------------------
D--------------------------------------------------
A---5-----4-----5-----4---4-5-----4----/16-15-15---
E------------------------4-------------------------


Prechorus 2:
G--------------------------------------------------
D--------------------------------------------------
A--------/6------------/6------------/6------------
E---1-----------\1------------\1-------------------
Ive seen it coming for quite some time...

G----------------5-5--5-7--------------------------
D---6-6--6-8---------------------------------------
A--------------------------------------------------
E--------------------------------------------------
We dont see eye to eye...




Bridge:
G------------5--6------------------5--6----7-------
D---3--5--6---------------3--5--6------------------
A--------------------------------------------------
E--------------------------------------------------
Is it too late...

G------------5--6-----6---------------5--6---------
D---3--5--6-------3/6--------3--5--6---------------
A--------------------------------------------------
E--------------------------------------------------
I will always mention you...


Outro: (repeated many times)
G--------------------------------------------------
D--------------------------------------------------
A---8-8-8-8-6-6-6-6-5-5-5-5-4-4-4-4----------------
E--------------------------------------------------

Comments about this tab

No comments/corrections found. Add your own

Complimentary Christian Ringtones
Dadamobile and CGR have teamed up to bring your favorite Christian artists right to your phone. Sign up today and get 10 complementary ringtones!
Tab Country
Did you know CGR has a sister site w/ country guitar tabs? Well we do! Its called Tab Country. It has a great archive with a lot of country tabs.
Rockin Tabs
Are you looking for a site that has rock guitar tabs? Then Rockintabs.com is the place for you. It is a budding site with many rock guitar tabs. Submit your tab today.
Tab Gallery
Tab Gallery has a compilation of christian, rock, and country tabs all in one place. Come visit us.