Bass Tabs
(THIRD DAY) OR BY ARTIST NAME (JENNIFER KNAPP)
0-9|A|B|C|D|E|F|G|H|I|J|K|L|M|N|O|P|Q|R|S|T|U|V|W|X|Y|Z

Join Us Today!

Don't strum alone...
be a part of the largest online Christian music community. Browse thousands of guitar tabs and chat w/ musicians like yourself.


It's Free!

This tab has been rated a 5.00 out of 5 for accuracy. (2 votes)Sorry, but you must be logged in to rate this tab.
Click here to log-in, or you can click here to register.
(Registration is free)

All songs owned by Integrity and Brentwood-Benson are used by permission. If you make copies of any song on this website, be sure to report your usage to CCLI.
Switchfoot - Spirit
tabbed by Eric Joo    erjoo18@hotmail.com

Pre-Chorus
G|------------------------------------
D|------3-----------------------------
A|--------------3-5-7-------3---------
E|--3-------55----------5-------------

Chorus
G|--------------------------
D|--------75--5-------------
A|----5--5--3---3-5--------- 2x
E|--3--20------------------- 

G|---------------------------------
D|--5---7-----------7--------------
A|----------7---3------------------
E|---------------------------------

Before 2nd Verse
G|---------------------------------
D|---------------------------------
A|---5---5-3---5---5-3-------------
E|--3-35------3-35-----------------

2nd Verse:
G|---------------------------------
D|---------------------------------
A|----------3---------------3------
E|--3---------------3--------------

2nd Pre-Chorus:
G|------------------------------------
D|------3-----------------------------
A|--------------3-5-7-------3---------
E|--3-------55----------5-------------

Chorus:

Bridge:
G|------------------------------------
D|--5-------5------5------------------
A|-----6------6-8-----6---333333555555
E|------4--------------4--------------

Chorus: keep playing chorus till the end of the song

I'm pretty sure this is how it goes. I didn't write the beats. Just listen
to the song and you'll figure it out. If there's anything wrong just e-mail
me or add corrections.

Comments about this tab

No comments/corrections found. Add your own

Complimentary Christian Ringtones
Dadamobile and CGR have teamed up to bring your favorite Christian artists right to your phone. Sign up today and get 10 complementary ringtones!
Tab Country
Did you know CGR has a sister site w/ country guitar tabs? Well we do! Its called Tab Country. It has a great archive with a lot of country tabs.
Rockin Tabs
Are you looking for a site that has rock guitar tabs? Then Rockintabs.com is the place for you. It is a budding site with many rock guitar tabs. Submit your tab today.
Tab Gallery
Tab Gallery has a compilation of christian, rock, and country tabs all in one place. Come visit us.