Bass Tabs
(THIRD DAY) OR BY ARTIST NAME (JENNIFER KNAPP)
0-9|A|B|C|D|E|F|G|H|I|J|K|L|M|N|O|P|Q|R|S|T|U|V|W|X|Y|Z

Join Us Today!

Don't strum alone...
be a part of the largest online Christian music community. Browse thousands of guitar tabs and chat w/ musicians like yourself.


It's Free!

This tab has not yet been rated for accuracy.Sorry, but you must be logged in to rate this tab.
Click here to log-in, or you can click here to register.
(Registration is free)

All songs owned by Integrity and Brentwood-Benson are used by permission. If you make copies of any song on this website, be sure to report your usage to CCLI.
Song: “Drop Dead” by Ghoti Hook
Copyright: 2002 Velvet Blue Music
Bass Tab By Kevin Duecker (GhotiHookKLD@aol.com)
NOTE: This tab is in half step down (Eb, Ab, Db, Gb) tuning.

Intro:
Gb:Rest---------------||Drum Fill
Db:Rest---------------||Drum Fill
Ab:Rest---------------||Drum Fill
Eb:Rest-35----3-------||Drum Fill

Pre-Verse:
Gb:|------|----------|---------|------|------|----------|
Db:|------|----------|---------|------|------|----------|
Ab:|----3-|----3-3553|----3-35-|----3-|----3-|----3-3553|
Eb:|5535-5|5535-5----|5535-5---|5535-5|5535-5|5535-5----|

Gb:|------|---------------------|-------------------||
Db:|------|-75-5----------5-----|-------------------||
Ab:|----3-|---7-75775-5---------|-------------------||
Eb:|5535-5|5---------7-753-3----|3333333333333333333||

Verse:
Gb:|---------|---------|--------------------||
Db:|---------|---------|--------------------||
Ab:|--------3|--------3|--------333---333222||
Eb:|55303555-|55303555-|55303555---333------||(2x)

Pre-Chorus:
Gb:|-------------------------------------||
Db:|-------------------------------------||
Ab:|--------------------333333333355555/\||
Eb:|55555555553333333333-----------------||

Chorus:
Gb:|--------------------------------||
Db:|--------------------------------||
Ab:|----------------3333333355555555||
Eb:|5555555533333333----------------||

Verse:
Gb:|---------|---------|--------------------||
Db:|---------|---------|--------------------||
Ab:|--------3|--------3|--------333---333222||
Eb:|55303555-|55303555-|55303555---333------||(2x)

Pre-Chorus:
Gb:|-------------------------------------||
Db:|-------------------------------------||
Ab:|--------------------333333333355555/\||
Eb:|55555555553333333333-----------------||

Chorus:
Gb:|--------------------------------||
Db:|--------------------------------||
Ab:|----------------3333333355555555||
Eb:|5555555533333333----------------||

Bridge/Solo:
Gb:|------||
Db:|------||
Ab:|----3-||
Eb:|5535-5||(3x)

Gb:|---------------||
Db:|-75-5----------||
Ab:|---7-75775-5---||
Eb:|5---------7-753||(3x)

Gb:|------------||
Db:|------------||
Ab:|--3--3--3--3||
Eb:|55-55-55-55-||

Gb:|--------------------------------||
Db:|--------------------------------||
Ab:|----------------3333333355555555||
Eb:|5555555533333333----------------||

Pre-Chorus:
Gb:|-------------------------------------||
Db:|-------------------------------------||
Ab:|--------------------333333333355555/\||
Eb:|55555555553333333333-----------------||

Chorus:
Gb:|--------------------------------||
Db:|--------------------------------||
Ab:|----------------3333333355555555||
Eb:|5555555533333333----------------||

Bridge II:
Gb:|-------------||
Db:|--------------||
Ab:|--3--3--3-7753||
Eb:|55-55-55-5----||(2x)

Gb:|----------------||
Db:|----------------||
Ab:|----------------||
Eb:|5555555555555555||

Outro:
Gb:|--------|--------|--------|------------||
Db:|--------|--------|--------|------------||
Ab:|---3322-|---77557|---3322-|--------3---||
Eb:|535----3|535-----|535----3|535--035-35\||

Well, that’s it...it has some hard stuff in it...but if you practice
you’ll master with joy...it’s a very fun song to play and I am 99% sure
that this is the correct tab...I spent a great of time into tabbing
it…have fun, God Bless and check out www.FrequencyRock.tk and sign the
guestbook!
-Kevin duecker
LONG LIVE GHOTI HOOK! R.I.P  Email me @ ghotihookKLD@aol.com and tell me
if you think ghoti hook should at least make one more music video and
which song you think it should be...

Comments about this tab

MickeyDsays - 2004-04-15

I believe the chords are G Am F for the second part of the verse.


Add a comment/correction

Complimentary Christian Ringtones
Dadamobile and CGR have teamed up to bring your favorite Christian artists right to your phone. Sign up today and get 10 complementary ringtones!
Tab Country
Did you know CGR has a sister site w/ country guitar tabs? Well we do! Its called Tab Country. It has a great archive with a lot of country tabs.
Rockin Tabs
Are you looking for a site that has rock guitar tabs? Then Rockintabs.com is the place for you. It is a budding site with many rock guitar tabs. Submit your tab today.
Tab Gallery
Tab Gallery has a compilation of christian, rock, and country tabs all in one place. Come visit us.