Bass Tabs
(THIRD DAY) OR BY ARTIST NAME (JENNIFER KNAPP)
0-9|A|B|C|D|E|F|G|H|I|J|K|L|M|N|O|P|Q|R|S|T|U|V|W|X|Y|Z

Join Us Today!

Don't strum alone...
be a part of the largest online Christian music community. Browse thousands of guitar tabs and chat w/ musicians like yourself.


It's Free!

Five Iron Frenzy - One Girl Army

This tab has not yet been rated for accuracy.Sorry, but you must be logged in to rate this tab.
Click here to log-in, or you can click here to register.
(Registration is free)

All songs owned by Integrity and Brentwood-Benson are used by permission. If you make copies of any song on this website, be sure to report your usage to CCLI.
Song: One Girl Army
Artist: Five Iron Frenzy
Album:Live: proof that the youth are revolting
      and Quantity is Job 1 Ep
Tabbed By Richie Howell

Live Intro:
G|------------------------------|
D|------------------------------| X2    On the second time through play
A|-(0-8-5-7-0-8-5-7-0)------0-7-|       the notes in () twelve times each
E|---------------------3-1------|

Quantity is Job 1 Intro, and post chorus:
G|-----------------------------------------|
D|-----------------------------------------|
A|------3-5-----------3-3-5------3-5-----2-|
E|-5-3------1-3-5-1-1--------5-3-----1-3---|

Verse:
G|-----5---------------|         
D|-7-7---7---------5---| X2
A|---------7-7-7-7---7-|
E|---------------------|         

G|---------------------------------------|
D|-----7------------7--------------------| 
A|-5-5---5--5-5-5-5---5-----10-----6---5-|
E|----------------------8-8----8-7---6---|

Chorus:
G|-----------------|
D|-----------------| Play each note 8 times
A|-8-7-0-5-8---5-7-|
E|-----------8-----|

Bridge:
G|-----------------------------------------------------------------|
D|-----------------------------------------------------------------|
A|-0-0-0+2-3---0+2-3---0+2-3--------0-0-0+2-3---0+2-3---0+2-3---3--|
E|-----------3-------3-------3-0-3------------3-------3-------3--3-|

The + means to hit the string once, but play both notes.

Let me know if you find any mistakes My e-mail is KingRichardII2001@Yahoo.com

Comments about this tab

No comments/corrections found. Add your own

Complimentary Christian Ringtones
Dadamobile and CGR have teamed up to bring your favorite Christian artists right to your phone. Sign up today and get 10 complementary ringtones!
Tab Country
Did you know CGR has a sister site w/ country guitar tabs? Well we do! Its called Tab Country. It has a great archive with a lot of country tabs.
Rockin Tabs
Are you looking for a site that has rock guitar tabs? Then Rockintabs.com is the place for you. It is a budding site with many rock guitar tabs. Submit your tab today.
Tab Gallery
Tab Gallery has a compilation of christian, rock, and country tabs all in one place. Come visit us.