Bass Tabs
(THIRD DAY) OR BY ARTIST NAME (JENNIFER KNAPP)
0-9|A|B|C|D|E|F|G|H|I|J|K|L|M|N|O|P|Q|R|S|T|U|V|W|X|Y|Z

Join Us Today!

Don't strum alone...
be a part of the largest online Christian music community. Browse thousands of guitar tabs and chat w/ musicians like yourself.


It's Free!

Jars of Clay - Liquid

This tab has been rated a 3.50 out of 5 for accuracy. (2 votes)Sorry, but you must be logged in to rate this tab.
Click here to log-in, or you can click here to register.
(Registration is free)

All songs owned by Integrity and Brentwood-Benson are used by permission. If you make copies of any song on this website, be sure to report your usage to CCLI.
Liquid
Jars of Clay

Tune Down 1/2 step--low to high EbAbDbGb


Intro---volume swell
Gb-------------------------------------------------------------
Db-------------------------------------------------------------
Ab-------------------------------------------------------------
Eb--0-----------------0------------------0-------------------

Before 1st verse
Gb-----------------------------------
Db----------0-000--000-00--00h22-----
Ab-----------------------------------
Eb--0--0-0h2----------------------------

1st verse is the same

Chorus
Gb--------------------------------------------------------------
Db--------------------------------------------------------------
Ab--777-7-77-777--333-3-33-333--------------------555-5-55-555--
Eb-------------------------------333-3-33-333-------------------

Before 2nd verse is the same as before the first verse

2nd verse is the same as the first verse

Yatta Yatta Yatta  Just reapeat those as neccacary


If you have any ?ís or comments email me at mansonstinks@aol.com

Play in Christ

Comments about this tab

No comments/corrections found. Add your own

Complimentary Christian Ringtones
Dadamobile and CGR have teamed up to bring your favorite Christian artists right to your phone. Sign up today and get 10 complementary ringtones!
Tab Country
Did you know CGR has a sister site w/ country guitar tabs? Well we do! Its called Tab Country. It has a great archive with a lot of country tabs.
Rockin Tabs
Are you looking for a site that has rock guitar tabs? Then Rockintabs.com is the place for you. It is a budding site with many rock guitar tabs. Submit your tab today.
Tab Gallery
Tab Gallery has a compilation of christian, rock, and country tabs all in one place. Come visit us.