Bass Tabs
(THIRD DAY) OR BY ARTIST NAME (JENNIFER KNAPP)
0-9|A|B|C|D|E|F|G|H|I|J|K|L|M|N|O|P|Q|R|S|T|U|V|W|X|Y|Z

Join Us Today!

Don't strum alone...
be a part of the largest online Christian music community. Browse thousands of guitar tabs and chat w/ musicians like yourself.


It's Free!

Skillet - Your Name Is Holy

This tab has been rated a 3.00 out of 5 for accuracy. (2 votes)Sorry, but you must be logged in to rate this tab.
Click here to log-in, or you can click here to register.
(Registration is free)

All songs owned by Integrity and Brentwood-Benson are used by permission. If you make copies of any song on this website, be sure to report your usage to CCLI.
Your Name Is Holy
Skillet

Dropped tuning E-D This is from the ardent worship cd. h= hammer on \=slide
down bass comes in at 00:40
G-------------------------------------------------------------------------------------------------------------------------------
D-------------------------------22-44-00--22-44-00-----------------22-44-000h2--22-44-000------------------2222-4444-00000000000
A-000-----------000-----------00---------00-------0000-----------00-----------00---------000-----------0000---------------------
D----222-444-000---222-444-000------------------------222-444-000--------------------------222-444-000--------------------------

G---------------------------------------------------------------------------------------------------------------------------------
D---------------2----------2----------------------------------------------------22-44-000h2----------22-44-00h2--22-44-00000000000
A-44-5/7-0-5\4\2-44-5/7-0-5-000h2--------000h2------------------12-12\7-9-5h7-00-----------00h2----00----------00-----------------
D-----------------------------222-444-000----222-444-00/12-12-12--------------------------22-44-000-------------------------------

G---------------------------------------------------------------------------- Then chorus 6 times
D----------------------2-------7---------------------------------------------
A-44-5/7-0-5\4\2-44-5/7-0-5\4\2----(slow)0-----0-----0-----0-----0-----0-----
D-----------------------------------------2-4-0-2-4-0-2-4-0-2-4-0-2-4-0-2-4-0
D----------------------------------------------------------------------------
This is an awsome worship song i hope you enjoy! ask me for any other skillet
songs at off ardent worship and ill give em to ya! remain12@yahoo.com is my
adress. cya lata fer now!

Comments about this tab

No comments/corrections found. Add your own

Complimentary Christian Ringtones
Dadamobile and CGR have teamed up to bring your favorite Christian artists right to your phone. Sign up today and get 10 complementary ringtones!
Tab Country
Did you know CGR has a sister site w/ country guitar tabs? Well we do! Its called Tab Country. It has a great archive with a lot of country tabs.
Rockin Tabs
Are you looking for a site that has rock guitar tabs? Then Rockintabs.com is the place for you. It is a budding site with many rock guitar tabs. Submit your tab today.
Tab Gallery
Tab Gallery has a compilation of christian, rock, and country tabs all in one place. Come visit us.