Bass Tabs
(THIRD DAY) OR BY ARTIST NAME (JENNIFER KNAPP)
0-9|A|B|C|D|E|F|G|H|I|J|K|L|M|N|O|P|Q|R|S|T|U|V|W|X|Y|Z

Join Us Today!

Don't strum alone...
be a part of the largest online Christian music community. Browse thousands of guitar tabs and chat w/ musicians like yourself.


It's Free!

Plumb - Stranded

This tab has not yet been rated for accuracy.Sorry, but you must be logged in to rate this tab.
Click here to log-in, or you can click here to register.
(Registration is free)

All songs owned by Integrity and Brentwood-Benson are used by permission. If you make copies of any song on this website, be sure to report your usage to CCLI.
Stranded (Work In Progress)
Plumb
Viva! 1999 Sampler

Ok.. here's how this one goes, it's pretty easy to play and the tailnotes
aren't hard to figure out, so I just gave mostly the roots of the chords
played by the bass. This is an incredible song... God bless <(((>< - Casey

P.S. this is played on a 5 string, if you don't have one you can compromise
by playing octaves.

Intro/Verse - ( bass comes in 3rd time )

G|---13/15--11---------------------------
D|--------------11--11h13-/-6-/-8--------
A|---------------------------------------
E|---------------------------------------
B|---------------------------------------

G|---------------------------------------
D|-----3-3-3-3-3-3-3-3-4-4-4-4-4-4-4-4\--
A|---------------------------------------
E|---------------------------------------
B|---------------------------------------

Pre Chorus - (?)'s are optional, varied

G|---------------------------------------
D|---------------------------------------
A|---------(4)---------------------------
E|---2-------------4-------6\------------
B|----------2----------------------------

Chorus -

G|---------------------------------------
D|---------------------------------------
A|--------(4)----------------------------
E|---2--2----------4-4--6--6-6\----------
B|---------2--2-2------------------------

Stranded .... Stranded....

Verses -

G|----------------------------------------
D|-(4)------(4)h(6)/(8)\------------------
A|----(4)-/-------------------------------
E|--2--------4---6------------------------
B|-----2----------------------------------

This is the basics of the song, I don't have the time right now to create
a full version, but I will make one if a lot of people request it. If you
would like it E-mail me at -GodsGuitarist@ICQmail.com- or if you have any
constructive criticism.. feel free to comment >:)

- Casey

Comments about this tab

No comments/corrections found. Add your own

Complimentary Christian Ringtones
Dadamobile and CGR have teamed up to bring your favorite Christian artists right to your phone. Sign up today and get 10 complementary ringtones!
Tab Country
Did you know CGR has a sister site w/ country guitar tabs? Well we do! Its called Tab Country. It has a great archive with a lot of country tabs.
Rockin Tabs
Are you looking for a site that has rock guitar tabs? Then Rockintabs.com is the place for you. It is a budding site with many rock guitar tabs. Submit your tab today.
Tab Gallery
Tab Gallery has a compilation of christian, rock, and country tabs all in one place. Come visit us.