Bass Tabs
(THIRD DAY) OR BY ARTIST NAME (JENNIFER KNAPP)
0-9|A|B|C|D|E|F|G|H|I|J|K|L|M|N|O|P|Q|R|S|T|U|V|W|X|Y|Z

Join Us Today!

Don't strum alone...
be a part of the largest online Christian music community. Browse thousands of guitar tabs and chat w/ musicians like yourself.


It's Free!

Jars of Clay - Like A Child

This tab has been rated a 5.00 out of 5 for accuracy. (1 vote)Sorry, but you must be logged in to rate this tab.
Click here to log-in, or you can click here to register.
(Registration is free)

All songs owned by Integrity and Brentwood-Benson are used by permission. If you make copies of any song on this website, be sure to report your usage to CCLI.
Like A Child (bass)
Jars of Clay
Album: Jars of Clay
 1995 Brentwood Music 
Tab by: Mike Chen (BornOfHim@aol.com)

INTRO
No bass

1ST VERSE
No bass

CHORUS
G-------------------------5---4-0-|
D--0------------------------------|  x3
A------0h2-3--2--0--3-------------|
E---------------------------------|


G---------------------------------|
D--0------------------------------|
A------0h2-3--2--0--3----3--------|
E---------------------------------|

LEAD-IN
G-----------|
D-----------|   x4
A----3----2-|
E-3---------|

2nd verse
No bass

CHORUS

INTERLUDE
G--------------------------------------------------------|
D-0-------------2--0---2h4-5-----2--0----------------2--3|
A------------3----------------3---------------3---3------|
E-----0h2-3----------------------------0h2-3-------------|


G-----------|
D-----------|   x8
A----3----2-|
E-3---------|

CHORUSx2

END
G--------------------------------------------------------|
D-0-------------2--0---2h4-5-----2--0----------------2--3|
A------------3----------------3---------------3---3------|
E-----0h2-3----------------------------0h2-3-------------|



G------|    G-------------| G-------|     G--------------|
D-2----|    D-0h2-0-------| D-2-----|  x3 D-0h2-0--------| x3
A----3-| x3 A-------0h2-0-| A----3--|     A-------0h2-0--|
E------|    E-------------| E-------|     E--------------|
                                                   End On G

Comments about this tab

No comments/corrections found. Add your own

Complimentary Christian Ringtones
Dadamobile and CGR have teamed up to bring your favorite Christian artists right to your phone. Sign up today and get 10 complementary ringtones!
Tab Country
Did you know CGR has a sister site w/ country guitar tabs? Well we do! Its called Tab Country. It has a great archive with a lot of country tabs.
Rockin Tabs
Are you looking for a site that has rock guitar tabs? Then Rockintabs.com is the place for you. It is a budding site with many rock guitar tabs. Submit your tab today.
Tab Gallery
Tab Gallery has a compilation of christian, rock, and country tabs all in one place. Come visit us.