Bass Tabs
(THIRD DAY) OR BY ARTIST NAME (JENNIFER KNAPP)
0-9|A|B|C|D|E|F|G|H|I|J|K|L|M|N|O|P|Q|R|S|T|U|V|W|X|Y|Z

Join Us Today!

Don't strum alone...
be a part of the largest online Christian music community. Browse thousands of guitar tabs and chat w/ musicians like yourself.


It's Free!

This tab has not yet been rated for accuracy.Sorry, but you must be logged in to rate this tab.
Click here to log-in, or you can click here to register.
(Registration is free)

All songs owned by Integrity and Brentwood-Benson are used by permission. If you make copies of any song on this website, be sure to report your usage to CCLI.
song: what if
album: Human Clay
written by: creed
tabbed by: henrik_fjonk@hotmail.com

DADG-tuning

/=slide up	\=slide down

Intro riff

G---7-2-3-3-2-2-2-2-7-2-3-3-2-2-2-2-3-3-2-2-
D-------------------------------------------
A-------------------------------------------
D-------------------------------------------

G-----
D-----
A-----
D--\--

Verse riff

G-----------------------
D-----------------------
A---------3-5-0-1-1-----
D-0-0-3-5-----------3-3-

Chorus riff

G-----------------------------------------------------------------
D-----------------------------------------------------------------
A-1-1-1---1-----1-3-3-1-1-1-----------1-3-1-----------1-3-1-------
D-------3---3-3-------------0-3-5-0-5-------3-5-3-0-5-------3-5-3-


Bridge riff1

G--------------------------------
D--------------------------------
A--------------------------------
D-0-0---0--0-0---0-0---0--0-0/12-

Bridge riff2

G--------------------------------------------
D--------------------------------------------
A--------------------------------------------
D-0-12-13-0-16-15-0-12-0-16-15-0-10-12-15-12-

Bridge riff3

G-----------------------------------------------------
D-----------------------------------------------------
A-----------------------------------------------------
D--0--0-0-4-0---0-0-3-0-4-3-4-3---0-0-4-0---0-3-0-2--- 
("what if, what if")

Intro riff
Verse riff x7
Chorus riff x2
Verse riff x7
Chorus riff x2
Bridge riff1 x2
Bridge riff2 x8
Bridge riff3 x4
Chorus riff x3
Bridge riff3 x4

___________________________________________
Verse 1

I can't find the rhyme in all my reason 
I've lost sense of time and all seasons
I feel I've been beaten down 
By the words of men who have no grounds 
I can't sleep beneath the trees of wisdom 
When your ax has cut the roots that feed them 
Forked tongues in bitter mouths 
Can drive a man to bleed from inside out

Chorus

What if you did? 
What if you lied? 
What if I avenge?
What if eye for an eye?

Verse 2

I've seen the wicked fruit of your vine 
Destroy the man who lacks a strong mind 
Human pride sings a vengeful song 
Inspired by the times you've been walked on 
My stage is shared by many millions 
Who lift their hands up high because they feel this 
We are one We are strong 
The more you hold us down the more we press on 


Bridge

I know I can't hold the hate inside my mind 
'Cause what consumes your thoughts controls your life
So I'll just ask a question 
What if? 
What if your words could be judged like a crime? 
_________________________________________________________


This tab may not be 100% correct but I think it's pretty close, so have fun
email me for questions or corrections (or just to say hi)

Comments about this tab

No comments/corrections found. Add your own

Complimentary Christian Ringtones
Dadamobile and CGR have teamed up to bring your favorite Christian artists right to your phone. Sign up today and get 10 complementary ringtones!
Tab Country
Did you know CGR has a sister site w/ country guitar tabs? Well we do! Its called Tab Country. It has a great archive with a lot of country tabs.
Rockin Tabs
Are you looking for a site that has rock guitar tabs? Then Rockintabs.com is the place for you. It is a budding site with many rock guitar tabs. Submit your tab today.
Tab Gallery
Tab Gallery has a compilation of christian, rock, and country tabs all in one place. Come visit us.