Bass Tabs
(THIRD DAY) OR BY ARTIST NAME (JENNIFER KNAPP)
0-9|A|B|C|D|E|F|G|H|I|J|K|L|M|N|O|P|Q|R|S|T|U|V|W|X|Y|Z

Join Us Today!

Don't strum alone...
be a part of the largest online Christian music community. Browse thousands of guitar tabs and chat w/ musicians like yourself.


It's Free!

Third Day - Your Love Oh Lord

This tab has been rated a 4.17 out of 5 for accuracy. (6 votes)Sorry, but you must be logged in to rate this tab.
Click here to log-in, or you can click here to register.
(Registration is free)

All songs owned by Integrity and Brentwood-Benson are used by permission. If you make copies of any song on this website, be sure to report your usage to CCLI.
Your Love Oh Lord by
Third Day
©Essential Records
Verses
G--------------------------------------------------------------------------
D--------------------------------------------------------------------------
A----------------3-3--3-3--3-3-----------------5-5--5-5--5-5---------------
E-3-3--3-3--3-3-----------------3-3--3-3--3-3-----------------0-0--0-0--0-0

G--------------------------------------------------------------------------
D--------------------------------------------------------------------------
A-3-3--3-3--3-3-----------------5-5--5-5--5-5-----------------3-3--3-3--3-3
E----------------3-3--3-3--3-3-----------------0-0--0-0--0-0---------------

G--------------------------------------------------------------------------
D--------------------------------------------------------------------------
A----------------5-5--5-5--5-5-----------------3-3--3-3--3-3---------------
E-3-3--3-3--3-3-----------------0-0--0-0--0-0-----------------3-3--3-3--3-3
Chorus
G---------------|----------------------------------------------------------
D---------------|----------------------------------------------------------
A-5-5--5-5--5-5-|-5-5--5-5--5-5--3-3--3-3--3-3-----------------------------
E---------------|-------------------------------3-3--3-3--3-3--3-3--3-3--3-

G---------------------------------------------------------------|
D---------------------------------------------------------------|
A----5-5--5-5--5-5--3-3--3-3--3-3--0-0--0-0--0-0--5-5--5-5--5-5-|
E-3-------------------------------------------------------------|

That should be all of it. This is a very easy song, so you can probably spice
it up a bit. E-mail me with any questions you might have. 

massive_j@yahoo.com. Peace Out.

Comments about this tab

JasonD - 2005-02-20

are you sure the D/E in the chorus isn't an Asus4 (x02230)? just sounds better to me ...


Duffy Mc Muffy - 2005-12-05

I suggest that the D in the verse and intro should be a Bm
So that you get: D Bm G Em


Add a comment/correction

Complimentary Christian Ringtones
Dadamobile and CGR have teamed up to bring your favorite Christian artists right to your phone. Sign up today and get 10 complementary ringtones!
Tab Country
Did you know CGR has a sister site w/ country guitar tabs? Well we do! Its called Tab Country. It has a great archive with a lot of country tabs.
Rockin Tabs
Are you looking for a site that has rock guitar tabs? Then Rockintabs.com is the place for you. It is a budding site with many rock guitar tabs. Submit your tab today.
Tab Gallery
Tab Gallery has a compilation of christian, rock, and country tabs all in one place. Come visit us.