Bass Tabs
(THIRD DAY) OR BY ARTIST NAME (JENNIFER KNAPP)
0-9|A|B|C|D|E|F|G|H|I|J|K|L|M|N|O|P|Q|R|S|T|U|V|W|X|Y|Z

Join Us Today!

Don't strum alone...
be a part of the largest online Christian music community. Browse thousands of guitar tabs and chat w/ musicians like yourself.


It's Free!

Third Day - This Song Was Meant For You

This tab has been rated a 5.00 out of 5 for accuracy. (1 vote)Sorry, but you must be logged in to rate this tab.
Click here to log-in, or you can click here to register.
(Registration is free)

All songs owned by Integrity and Brentwood-Benson are used by permission. If you make copies of any song on this website, be sure to report your usage to CCLI.
Title: This Song Was Meant For You
Album: Conspiracy #5
Artist/Author: Third Day
Cpoyright: 1997 Reunion Records

When Tai slides up to the note in the chorus, bridge, and right before the
bridge and chorus he is putting a lot of rhythym into it. I put no rhythm
in the tab. The base, for the most part, follows the kick throughout the
song. In the chorus, the base does not play the 7th like the guitar. You
will have to listen to the bridge quite meticulously for the rhythym. In the
bridge, on the G7 part, this notes are on two beats each and I didn't Just
"hear" them, they are actually there. Just listen. There are more notes 
sliding up to the G in the bridge than tabbed.-Kent- 

          C  E  F   A  G  C  E  F   A  Ab Bb
In&Int G-------------------------------------
       D-------------------------------------
       A------------------3------------------
       E--8--0--1--/5--3-----0--1--/5--4--6--

        C  E  F   A  G  C  E  F   A  G  D  F
Ver1 G----------------------------------------
     D----------------------------------------
     A----------------------------------5--8--
     E--8--0--1--/5--3--8--0--1--/5--3--------

        C  F  Ab C  F  Ab
Cho1 G-------------------------
     D-------------------------
     A-----8--------8-----/11--
     E--8-----4--8-----4-------

        C  E  F   A  G  C  E  F   A  G  D  F
Ver2 G---------------------------------------------
     D----------------------------------------/15--
     A----------------------------------5--7-------
     E--8--0--1--/5--3--8--0--1--/5--3-------------

        C  F  Ab C  F  Ab  
Cho2 G------------------------------
     D------------------------------
     A-----8--------8-----/11--/11--
     E--8-----4--8-----4------------

        G                C  Bb  G              (G7)             C Bb F#
Bri  G-----------------------------------------------------------------
     D-----------------------------------------------------------------
     A--/10-/10-/10-/10--------/10-/10-/10-/10--/10-/12-/14-/17--------
     E-------------------8--6-----------------------------------8-6--2-

        D  G             Bb
Cho3 G----------------------
     D----------------------
     A--5------5-----5------
     E-----3-3---3-3----/6--

Comments about this tab

No comments/corrections found. Add your own

Complimentary Christian Ringtones
Dadamobile and CGR have teamed up to bring your favorite Christian artists right to your phone. Sign up today and get 10 complementary ringtones!
Tab Country
Did you know CGR has a sister site w/ country guitar tabs? Well we do! Its called Tab Country. It has a great archive with a lot of country tabs.
Rockin Tabs
Are you looking for a site that has rock guitar tabs? Then Rockintabs.com is the place for you. It is a budding site with many rock guitar tabs. Submit your tab today.
Tab Gallery
Tab Gallery has a compilation of christian, rock, and country tabs all in one place. Come visit us.