Bass Tabs
(THIRD DAY) OR BY ARTIST NAME (JENNIFER KNAPP)
0-9|A|B|C|D|E|F|G|H|I|J|K|L|M|N|O|P|Q|R|S|T|U|V|W|X|Y|Z

Join Us Today!

Don't strum alone...
be a part of the largest online Christian music community. Browse thousands of guitar tabs and chat w/ musicians like yourself.


It's Free!

Third Day - I've Always Loved You

This tab has been rated a 5.00 out of 5 for accuracy. (4 votes)Sorry, but you must be logged in to rate this tab.
Click here to log-in, or you can click here to register.
(Registration is free)

All songs owned by Integrity and Brentwood-Benson are used by permission. If you make copies of any song on this website, be sure to report your usage to CCLI.
I've Always Loved You
Artist: Third Day
Album: Time
Copyright 1999 New Spring Publishing, Inc.
Tabbed by Ned Norster ( Check out my band! RogerReptile.com)


Intro/Verse

G--------------------
D--------------------                3X
A------12-11-12-11---
E-12-11------------7-

Refrain
G-------------------------------
D-------------------------------
A--12-7---12-7---12-7-6-4--12-11-
E-9-----9------9-----------------7

2nd Verse (just play lower)
G--------------
D--------------
A-7-6---------2
E-----5-4-5-4---


2nd Refrain
G---------------   --------------------
D---------------   --------------------              2X
A{--12-11-7-4-}*   -12-7-12-11-11-7-4--
E--------------   ---------------------
    *{1st time only}

G-------------------------
D-------------------------
A-7-6-4--7--7-6-4--7-6----
E----------------------7--

(Verse part)
(Refrain part 2X)
(Verse Part/ Outro)



Notes-  I think this is the easiest way to play this.  You can move the intro
to lower on the neck if you want.  Spacious!

Comments about this tab

No comments/corrections found. Add your own

Complimentary Christian Ringtones
Dadamobile and CGR have teamed up to bring your favorite Christian artists right to your phone. Sign up today and get 10 complementary ringtones!
Tab Country
Did you know CGR has a sister site w/ country guitar tabs? Well we do! Its called Tab Country. It has a great archive with a lot of country tabs.
Rockin Tabs
Are you looking for a site that has rock guitar tabs? Then Rockintabs.com is the place for you. It is a budding site with many rock guitar tabs. Submit your tab today.
Tab Gallery
Tab Gallery has a compilation of christian, rock, and country tabs all in one place. Come visit us.