Bass Tabs
(THIRD DAY) OR BY ARTIST NAME (JENNIFER KNAPP)
0-9|A|B|C|D|E|F|G|H|I|J|K|L|M|N|O|P|Q|R|S|T|U|V|W|X|Y|Z

Join Us Today!

Don't strum alone...
be a part of the largest online Christian music community. Browse thousands of guitar tabs and chat w/ musicians like yourself.


It's Free!

MxPx - Party, My House, Be There

This tab has not yet been rated for accuracy.Sorry, but you must be logged in to rate this tab.
Click here to log-in, or you can click here to register.
(Registration is free)

All songs owned by Integrity and Brentwood-Benson are used by permission. If you make copies of any song on this website, be sure to report your usage to CCLI.
Title: Party, My House, Be There
Band: MxPx
Album: Slowly Going The Way Of The Buffalo
Tabbed By: Ben Ballinger ( scratchliner@yahoo.com)

TURN THE BASS DOWN A FEW AND THE TREBLE UP. IT MAKES IT EASIER IF YOU
USE A PICK.


After first little Intro play this:

Intro:

A-----------0-0-2-2-]
E-0-0-2-2-----------]        X2


VERSE:

E-0-0-0-0-0-0-0-0-0-0-0-]

A-0-0-0-0-0-0-0-0-0-]

E-0-0-0-0-0-0-]

A-2-2-2-2-2-2-2-0-]

INTRO:
A-----------0-0-2-2-]
E-0-0-2-2-----------]        X2


A-0--00000------------2-22222222-]
E-------------3-33333------------]

CHORUS:?
“you said”

A----------0-0-----------2-2-----------0-0-0-2-2-2-2-]
E-0-0-0-0------0-0-0-0-------0-0-0-0-----------------]        X2

VERSE:   The beat changes. I don’t wanna take the time to figure it out
so just listen to the song a few times

E-0-0-0-0-0-0-0-0-0-0-0-]

A-0-0-0-0-0-0-0-0-0-]

E-0-0-0-0-0-0-]

A-2-2-2-2-2-2-2-0-]

INTRO:
A-----------0-0-2-2-]
E-0-0-2-2-----------]        X2

A-0--00000------------2-22222222-]
E-------------3-33333------------]

CHORUS:?
“you said”

A----------0-0-----------2-2-----------0-0-0-2-2-2-2-]
E-0-0-0-0------0-0-0-0-------0-0-0-0-----------------]        X2

OUTRO:

A-----------0-0-2-2-]
E-0-0-2-2-----------]        X3

A-0--00000------------2-22222222-------]
E-------------3-33333----------------0-]


Email me if something is wrong. If you don’t want to print out all this
just print the main parts. Peace out.

Comments about this tab

JasonD - 2005-01-17

great tab!


david_odyssey - 2005-10-12

great tab, great song. nice one.


Add a comment/correction

Complimentary Christian Ringtones
Dadamobile and CGR have teamed up to bring your favorite Christian artists right to your phone. Sign up today and get 10 complementary ringtones!
Tab Country
Did you know CGR has a sister site w/ country guitar tabs? Well we do! Its called Tab Country. It has a great archive with a lot of country tabs.
Rockin Tabs
Are you looking for a site that has rock guitar tabs? Then Rockintabs.com is the place for you. It is a budding site with many rock guitar tabs. Submit your tab today.
Tab Gallery
Tab Gallery has a compilation of christian, rock, and country tabs all in one place. Come visit us.