Bass Tabs
(THIRD DAY) OR BY ARTIST NAME (JENNIFER KNAPP)
0-9|A|B|C|D|E|F|G|H|I|J|K|L|M|N|O|P|Q|R|S|T|U|V|W|X|Y|Z

Join Us Today!

Don't strum alone...
be a part of the largest online Christian music community. Browse thousands of guitar tabs and chat w/ musicians like yourself.


It's Free!

This tab has been rated a 5.00 out of 5 for accuracy. (1 vote)Sorry, but you must be logged in to rate this tab.
Click here to log-in, or you can click here to register.
(Registration is free)

All songs owned by Integrity and Brentwood-Benson are used by permission. If you make copies of any song on this website, be sure to report your usage to CCLI.
Band: MxPx
Song: Yuri Wakes Up Screaming
Album: Renaissance EP
TABBED BY:  Ben Ballinger scratchliner@yahoo.com

 
INTRO:
G-------------------]
D---------------1-0-]
A-------------------]
E-3-3-3-3-3-3-------]



Where singing starts 
A----------------3-3-3-3-3-3-3----]     x2
E-3-3-3-3-0-0---------------------]



A-----------3-3-3-3-33----------------3-3-3-3-]
E-3-3-0-0----------------3-3-3-3-0-0----------]


Nifty part in the middle with no words:
A--------------]
E-31—31—31—31—3]


NEXT BASS DOESN’T PLAY FOR A BIT. YOU’LL HEAR IT.

G----------------------8-------7-]
D-------------------5-------4----]
A----------------6--------5------]
E-3-3-0-0-0-0--------------------]         X3

D--------0-0-0-0-0-0-0-0------]
A-3-3-3-----------------------]
E----------------------------3]    LET THE LAST NOTE RING. 


THAT’S IT EMAIL QUESTIONS COMMENTS OR ANYTHING ELSE MIGHT WANT. MXPX RAWKS.
PEACE OUT.

Comments about this tab

No comments/corrections found. Add your own

Complimentary Christian Ringtones
Dadamobile and CGR have teamed up to bring your favorite Christian artists right to your phone. Sign up today and get 10 complementary ringtones!
Tab Country
Did you know CGR has a sister site w/ country guitar tabs? Well we do! Its called Tab Country. It has a great archive with a lot of country tabs.
Rockin Tabs
Are you looking for a site that has rock guitar tabs? Then Rockintabs.com is the place for you. It is a budding site with many rock guitar tabs. Submit your tab today.
Tab Gallery
Tab Gallery has a compilation of christian, rock, and country tabs all in one place. Come visit us.