Bass Tabs
(THIRD DAY) OR BY ARTIST NAME (JENNIFER KNAPP)
0-9|A|B|C|D|E|F|G|H|I|J|K|L|M|N|O|P|Q|R|S|T|U|V|W|X|Y|Z

Join Us Today!

Don't strum alone...
be a part of the largest online Christian music community. Browse thousands of guitar tabs and chat w/ musicians like yourself.


It's Free!

Barnard, Shane - Rocks Won't Cry

This tab has not yet been rated for accuracy.Sorry, but you must be logged in to rate this tab.
Click here to log-in, or you can click here to register.
(Registration is free)

All songs owned by Integrity and Brentwood-Benson are used by permission. If you make copies of any song on this website, be sure to report your usage to CCLI.
Rocks Won’t Cry by Shane Barnard
from Rocks Won’t Cry
words and music by Shane Barnard
Awakening Records
copyright (c) 1999
www.shanebarnard.com
www.awakeningrecords.com

“Rocks Won’t Cry”

There's not much of a bass part for this song, but if you want to play along,
then use this tab.  The best part is a little tag near the end of the song.
This is my frist tab, so please e-mail me with some
suggestions of how to make it better next time.

Intro (start with guitar downstrum after two bars of the shaker):
G|-------------------------------------------------
D|-------------------2--4--------------------2--4--
A|-2--1--------4>-----------2--1-------4>----------
E|-------4--2--------------------4--2--------------

Verse ("I bow down..."):
G|------------------------------------------------------------------------
D|-------------------2--4--------------------2--4--------------------2--4-
A|-2--1--------4>----------2--1--------4>----------2--1--------4>---------
E|-------4--2--------------------4--2--------------------4--2-------------


Chorus ("Because I cry...")
G|--------------------------------------------------
D|--------------------------------------------------
A|-------------2--2--2--2---------------2--2--2---4-
E|-2--2--2--2---------------2--2--2--2--------------
                                                  ^ ..."I cry out"

Verse again:
G|------------------------------------------------------------------------
D|-------------------2--4--------------------2--4--------------------2--4-
A|-2--1--------4>----------2--1--------4>----------2--1--------4>---------
E|-------4--2--------------------4--2--------------------4--2-------------

Chorus 2:
G|------------------------------------------------------------------
D|------------------------------------------------------------------
A|-------------2--2--2--2---------------2--2--2--2------------------
E|-2--2--2--2---------------2--2--2--2--------------2>--------------
                                                    "Lord, I cry..."

Ending:
G|-------------------------------------------------------------
D|-------------------------------------------------------------
A|-------------2--2--2--2---------------2--2--2--2-------------
E|-2--2--2--2---------------2--2--2--2--------------2--2--2--2-

G|-------2h4-2-0------------------------------------
D|---------------2-0--------------------------------
A|-2--2--------------2-0-------------2--2--2--2-----
E|-----------------------2--2--2--2--------------2=>
                                                 end on F#


Tim@timothygossett.com

Comments about this tab

tdper - 2008-11-06

This song was actually originally recorded in an alternate tuning: low to high, F, F#, C#, F#, A#, C#. I've never tabbed before, but I'll try tabbing this one in the alt. tuning and will post it. It's a really good Easter song.


Add a comment/correction

Complimentary Christian Ringtones
Dadamobile and CGR have teamed up to bring your favorite Christian artists right to your phone. Sign up today and get 10 complementary ringtones!
Tab Country
Did you know CGR has a sister site w/ country guitar tabs? Well we do! Its called Tab Country. It has a great archive with a lot of country tabs.
Rockin Tabs
Are you looking for a site that has rock guitar tabs? Then Rockintabs.com is the place for you. It is a budding site with many rock guitar tabs. Submit your tab today.
Tab Gallery
Tab Gallery has a compilation of christian, rock, and country tabs all in one place. Come visit us.