Bass Tabs
(THIRD DAY) OR BY ARTIST NAME (JENNIFER KNAPP)
0-9|A|B|C|D|E|F|G|H|I|J|K|L|M|N|O|P|Q|R|S|T|U|V|W|X|Y|Z

Join Us Today!

Don't strum alone...
be a part of the largest online Christian music community. Browse thousands of guitar tabs and chat w/ musicians like yourself.


It's Free!

Hughes, Tim - Here I Am To Worship

This tab has been rated a 4.90 out of 5 for accuracy. (10 votes)Sorry, but you must be logged in to rate this tab.
Click here to log-in, or you can click here to register.
(Registration is free)

All songs owned by Integrity and Brentwood-Benson are used by permission. If you make copies of any song on this website, be sure to report your usage to CCLI.
Here I Am To Worship                               
Tim Hughes


=========
Bass Line
=========
                                                                         
G||-----------------------|----------------------|----------------------|
D||*--2------2------------|-------------------4--|--2------2------------|
A||-------------2------2--|----------------4-----|------------2------2--|
E||*----------------------|--2------2------------|----------------------|
B||-----------------------|----------------------|----------------------|


                                                                    
---------------------|----------------------|----------------------|
------------7--------|--2------2------------|-------------------4--|
---------7-----------|------------2------2--|----------------4-----|
--5------------------|----------------------|--2------2------------|
---------------------|----------------------|----------------------|


                                                                   
----------------------|----------------------|--------------------|
--2------2------------|------------7---------|--------------------|
------------2------2--|---------7------------|--------------------|
----------------------|--5----------------5--|--5------------7----|
----------------------|----------------------|--------------------|


                                                                  
---------------------|---------------------|---------------------|
---------------------|---------------------|---------------------|
--7------7--------7--|--6------6--------6--|---------------------|
---------------------|---------------------|--4------4--------4--|
---------------------|---------------------|---------------------|


                                                                   
----------------------|---------------------|---------------------|
------------7---------|---------------------|---------------------|
-------7--------------|--7------7--------7--|--6------6--------6--|
--5----------------5--|---------------------|---------------------|
----------------------|---------------------|---------------------|


                                                                   
---------------------|----------------------|--------------------||
---------------------|------------7---------|-------------------*||
---------------------|---------7------------|--------------------||
--4------4--------4--|--5----------------5--|--7----------------*||
---------------------|----------------------|--------------------||


                                                                    
---------------------||----------------------|---------------------|
------------7--------||*---------------------|---------------------|
---------7-----------||---6------7-----------|---------------------|
--5------------------||*------------4--------|--5------5--5--------|
---------------------||----------------------|---------------------|


                                                                    
---------------------|----------------------||---------------------|
---------------------|---------------------*||---------------------|
--6------7-----------|----------------------||---------------------|
------------4--------|--5------5--5--------*||--5------5--5--------|
---------------------|----------------------||---------------------|


                                                                 
--------------------|---------------------|---------------------|
--------------------|---------------------|---------------------|
--------------------|--7------7--------7--|--6------6--------6--|
--5------------7----|---------------------|---------------------|
--------------------|---------------------|---------------------|


                                                                   
---------------------|----------------------|---------------------|
---------------------|------------7---------|---------------------|
---------------------|-------7--------------|--7------7--------7--|
--4------4--------4--|--5----------------5--|---------------------|
---------------------|----------------------|---------------------|


                                                                   
---------------------|---------------------|----------------------|
---------------------|---------------------|------------7---------|
--6------6--------6--|---------------------|---------7------------|
---------------------|--4------4--------4--|--5----------------5--|
---------------------|---------------------|----------------------|


                                                            
-------------------|-------------------|------------------||
-------------------|-------------------|------------------||
-------------------|--7----------------|------------------||
--7----------------|--0----------------|------------------||
-------------------|-------------------|------------------||

Comments about this tab

julienbatomb - 2017-05-18

This is cool to try to put tabs here but seriously it's not very clear and precise. The app I use to play and learn guitar at the time is MyMusicTeacher and they have thousands of tracks and guitar lessons, very clear and simple to understand. They have free tabs for thousands of tracks and it detects what you play. I recommend it ! https://mymusicteacher.fr/en


Add a comment/correction

Complimentary Christian Ringtones
Dadamobile and CGR have teamed up to bring your favorite Christian artists right to your phone. Sign up today and get 10 complementary ringtones!
Tab Country
Did you know CGR has a sister site w/ country guitar tabs? Well we do! Its called Tab Country. It has a great archive with a lot of country tabs.
Rockin Tabs
Are you looking for a site that has rock guitar tabs? Then Rockintabs.com is the place for you. It is a budding site with many rock guitar tabs. Submit your tab today.
Tab Gallery
Tab Gallery has a compilation of christian, rock, and country tabs all in one place. Come visit us.