Bass Tabs
(THIRD DAY) OR BY ARTIST NAME (JENNIFER KNAPP)
0-9|A|B|C|D|E|F|G|H|I|J|K|L|M|N|O|P|Q|R|S|T|U|V|W|X|Y|Z

Join Us Today!

Don't strum alone...
be a part of the largest online Christian music community. Browse thousands of guitar tabs and chat w/ musicians like yourself.


It's Free!

Anguish Unsaid - Hello Sweet Visual

This tab has not yet been rated for accuracy.Sorry, but you must be logged in to rate this tab.
Click here to log-in, or you can click here to register.
(Registration is free)

All songs owned by Integrity and Brentwood-Benson are used by permission. If you make copies of any song on this website, be sure to report your usage to CCLI.
Anguish Unsaid
Bass Tab
"Hello Sweet Visual"
tabbed by: andycraze@hotmail.com

This is off of their newer cd..."Chronicles of The Restoration of The Church"

Main Verse Riff....
(put quiet yet fuzzy distortion on)

G----------------------------------------------------------------
D----------------------------------------------------------------
A--2--2---2-------2--2--2---------2---2---2----------------------
E-3--3--3---3/0--0--0--0---0/3---3--3---3------------------------


Just keep repeating that all through out the verse then comes....


THE CHORUS....
The rythm is a tad tricky but the notes are easy
G----------------------------------------------------------------
D----------------------------------------------------------------
A--3-5-----3-5---------------------------------------------------
E------3--------5--3-0-------------------------------------------

Repeat until Jon says...."...Hello Sweet Visual.." 

then pause then go back into the verse
the end

Comments about this tab

The TuneHead - 2004-09-30

Lyrics in the bridge should be . . .
"Don't let a neighbor go -- form a holy picket line"


Add a comment/correction

Complimentary Christian Ringtones
Dadamobile and CGR have teamed up to bring your favorite Christian artists right to your phone. Sign up today and get 10 complementary ringtones!
Tab Country
Did you know CGR has a sister site w/ country guitar tabs? Well we do! Its called Tab Country. It has a great archive with a lot of country tabs.
Rockin Tabs
Are you looking for a site that has rock guitar tabs? Then Rockintabs.com is the place for you. It is a budding site with many rock guitar tabs. Submit your tab today.
Tab Gallery
Tab Gallery has a compilation of christian, rock, and country tabs all in one place. Come visit us.