Bass Tabs
(THIRD DAY) OR BY ARTIST NAME (JENNIFER KNAPP)
0-9|A|B|C|D|E|F|G|H|I|J|K|L|M|N|O|P|Q|R|S|T|U|V|W|X|Y|Z

Join Us Today!

Don't strum alone...
be a part of the largest online Christian music community. Browse thousands of guitar tabs and chat w/ musicians like yourself.


It's Free!

DC Talk - Jesus Freak

This tab has been rated a 3.50 out of 5 for accuracy. (4 votes)Sorry, but you must be logged in to rate this tab.
Click here to log-in, or you can click here to register.
(Registration is free)

All songs owned by Integrity and Brentwood-Benson are used by permission. If you make copies of any song on this website, be sure to report your usage to CCLI.
Jesus Freak
DC Talk

I looked at the tab for this song on this site and found a few
important mistakes and pieces missing that I wish to correct. So here is,
more or less, the complete song.


Intro/Chorus

E--1-1-1-4-4-4-4-------6-6--8-8-8-6-4--1-1-1-4-4-4-4-------6-6--8-8---------
A-----------------6-6---------------------------------6-6-------------------
D---------------------------------------------------------------------/10---
G---------------------------------------------------------------------------

Verse

E------9--6--
A--8---------
D------------   (4x)   
G------------

Prechorus

E---------9-9-9-9--6-6-6-6-6-6--------------
A--8-8-8-------------------------3/6-6-6----
D-------------------------------------------     (4x)
G-------------------------------------------

The last time you play the prechorus before going into the chorus, do this:

E---------9-9-9-9--6-6-6-6-9-6--6/1-- (slide back into the chorus)
A--8-8-8-----------------------------      
D------------------------------------
G------------------------------------

Play this on the section immedietely after the first chorus and on the bridge:

E----------------
A--8--------6/8--
D-----8--6-------
G----------------

Solo

E-----------4-4-4-4-----4-4-4-----4-6-4-0---------4-4-4-4----4-4-4-------------
A---5-5-5------------5---------5-----------5-5-5-----------5-------5-----5---5-
D---------------------------------------------------------------------6----6---
G------------------------------------------------------------------------------
                                          \___________________________________/
                                                    |
The second time through the solo, play the second half like this:
 
E--------4-4-4-4----
A--5-5-5------------
D-----------------6- hit this note very rapidly about 15 times and slide back 
G------------------- into the chorus as shown in the prechorus.


The bridge has two bass parts playing at once. This is the second part:

E---------------------------------------
A--8----------------8-------------------
D-----10---------------10---------------  (3x)
G--------10--12-13---------10-12-10-10--

Finally, the order: Intro, Verse, Prechorus, Chorus, Verse, Prechorus, Chorus, 
                    Bridge, Solo, Chorus.

Comments about this tab

stoowpidd - 2004-07-13

on most of the other songs the chord formations are posted but there not on this one. can somebody send me them at stoowpidd@yahoo.com


Add a comment/correction

Complimentary Christian Ringtones
Dadamobile and CGR have teamed up to bring your favorite Christian artists right to your phone. Sign up today and get 10 complementary ringtones!
Tab Country
Did you know CGR has a sister site w/ country guitar tabs? Well we do! Its called Tab Country. It has a great archive with a lot of country tabs.
Rockin Tabs
Are you looking for a site that has rock guitar tabs? Then Rockintabs.com is the place for you. It is a budding site with many rock guitar tabs. Submit your tab today.
Tab Gallery
Tab Gallery has a compilation of christian, rock, and country tabs all in one place. Come visit us.