Bass Tabs
(THIRD DAY) OR BY ARTIST NAME (JENNIFER KNAPP)
0-9|A|B|C|D|E|F|G|H|I|J|K|L|M|N|O|P|Q|R|S|T|U|V|W|X|Y|Z

Join Us Today!

Don't strum alone...
be a part of the largest online Christian music community. Browse thousands of guitar tabs and chat w/ musicians like yourself.


It's Free!

Audio Adrenaline - DC-10

This tab has been rated a 5.00 out of 5 for accuracy. (5 votes)Sorry, but you must be logged in to rate this tab.
Click here to log-in, or you can click here to register.
(Registration is free)

All songs owned by Integrity and Brentwood-Benson are used by permission. If you make copies of any song on this website, be sure to report your usage to CCLI.
DC-10
Audio Adrenaline
Tab Entry: Copyright 1999 Forefront Records

Rob Botz had the two lines he submitted correct, but here is an alternate fingering 
of those lines that some may find easier along with the rest of the song.

Intro:
G|---------------------------------------|
D|---------------------------------------|
A|-------------------------7-7-7-7-7-7-7-|
E|-0-----------0-------------------------|

line A:                  line B:
G|-------------------|   G|-------------------|
D|-------------------|   D|-------4---5-4-----|
A|-------4---5-4-----|   A|-0-4-7---------7-4-|
E|-0-4-7---------7-4-|   E|-------------------|

line C:
G|---------------------------------------|
D|-----4-6---------4---------------------|
A|---6-------0-4-7---------0-2---2-0-----|
E|-7-------------------0-4-----------4-2-|

tag:
G|-----------------|
D|-2-----------1-2-|
A|---4-2---2h4-----|
E|-------4---------|

section 1: intro, line B, line A, line C
section 2: line A 2x, line B, line A, line C

Play section 1, section 2 3x, section 1,
section 2 2x,
then song goes into "747 fell out of heaven" part
with bass accents and the drum solo,
song ends with tag.

Comments about this tab

No comments/corrections found. Add your own

Complimentary Christian Ringtones
Dadamobile and CGR have teamed up to bring your favorite Christian artists right to your phone. Sign up today and get 10 complementary ringtones!
Tab Country
Did you know CGR has a sister site w/ country guitar tabs? Well we do! Its called Tab Country. It has a great archive with a lot of country tabs.
Rockin Tabs
Are you looking for a site that has rock guitar tabs? Then Rockintabs.com is the place for you. It is a budding site with many rock guitar tabs. Submit your tab today.
Tab Gallery
Tab Gallery has a compilation of christian, rock, and country tabs all in one place. Come visit us.